Sound will begin in 5 seconds

Ama no Jaku

01234567891011121314151617181920212223
E
B
G
D
A
E
B
0 1 2 3 4 5 6 7 8 9 10 11 12 13 14 15 16 17 18 19 20 21 22 23
Song Science #1: How Pros Use 6 Chords to Write Hit Songs
(/) Slide Up  (\) Slide Down  (h) Hammer On  (p) Pull Off  (b) Bend (r) Release (v) Vibrato

Stave 1:

E|--5--5-----------------------------------------------------------5--5-----------------------------------------------------------
B|--------5--3--5--3--5--3h5\7--3--3--5--3--5--3--5--3--5--5\7--3--------5--3--5--3--5--3h5\7--3--3--5--3--5--3--3--3--5--5\7--3--
G|--------------------------------------------------------------------------------------------------------------------------------
D|--------------------------------------------------------------------------------------------------------------------------------
A|--------------------------------------------------------------------------------------------------------------------------------
E|--------------------------------------------------------------------------------------------------------------------------------

Stave 2:

E|--5--5-----------------------------------------------------------5--5--------------------------------------------------5-------
B|--------5--3--5--3--5--3h5\7--3--3--5--3--5--3--5--3--5--5\7--3--------5--3--5--3--5--3h5\7--3--5--3--5--3--5--3--5\7----------
G|--------------------------------------------------------------------------------------------------------------------------6\7--
D|-------------------------------------------------------------------------------------------------------------------------------
A|-------------------------------------------------------------------------------------------------------------------------------
E|-------------------------------------------------------------------------------------------------------------------------------

Stave 3:

E|--7--5h7b5v--
B|-------------
G|-------------
D|-------------
A|-------------
E|-------------

Stave 4:

E|--5--5--------------------5---------------------------------------------------------------------------------------------------------
B|--------5--3--5--3--5--3-----3v--3--3--5--3--5--3--3--3--5h7--------------5--------------5--7--3-----------5-----8--7--8--7--8--7v--
G|--------------------------------------------------------------6--6--6--7-----7--4--6--7-----------4--6--7-----7---------------------
D|------------------------------------------------------------------------------------------------------------------------------------
A|------------------------------------------------------------------------------------------------------------------------------------
E|------------------------------------------------------------------------------------------------------------------------------------

Stave 5:

E|-------------------------------------------12--11v--11--9--------------------------------------------------
B|------11--12--11--12-----------11--12--11------------------12--11--12------11--12------12\14--12--14--12v--
G|--11------------------11v--11------------------------------------------11----------11----------------------
D|-----------------------------------------------------------------------------------------------------------
A|-----------------------------------------------------------------------------------------------------------
E|-----------------------------------------------------------------------------------------------------------

Stave 6:

E|-------------------------------------------12--11-------------------------9-----------
B|------11--12--11--12-----------11--12--11----------14--12b14--12------12-----12--11v--
G|--11------------------11v--11-------------------------------------11------------------
D|--------------------------------------------------------------------------------------
A|--------------------------------------------------------------------------------------
E|--------------------------------------------------------------------------------------

Stave 7:

E|------------------------------5---------------9--7--6-------------5--5-------------------------------------------------5---------------------
B|--------------5------------------7v--7--8--7-----------7--5-------------5--3--5--3--5--3--5\7--3--3--5--3--5--3--5--3-----3v--3--5--3--5--3--
G|--6--6--6--7-----7v--4--6--7---------------------------------6\7-----------------------------------------------------------------------------
D|---------------------------------------------------------------------------------------------------------------------------------------------
A|---------------------------------------------------------------------------------------------------------------------------------------------
E|---------------------------------------------------------------------------------------------------------------------------------------------

Stave 8:

E|--------5--6--5--6--5v--
B|--5--3------------------
G|------------------------
D|------------------------
A|------------------------
E|------------------------

http://www.guitartabcreator.com
Guitar Tab Creator is intended to store guitar tab created through the tool. It currently does not support in-line text editing. Any text you place in here will be lost. If you need to comment on your tab, please use the "Tab Notes" section located below.