Sound will begin in 5 seconds

The Show

Chords
01234567891011121314151617181920212223
E
B
G
D
A
E
B
0 1 2 3 4 5 6 7 8 9 10 11 12 13 14 15 16 17 18 19 20 21 22 23
Song Science #1: How Pros Use 6 Chords to Write Hit Songs
(/) Slide Up  (\) Slide Down  (h) Hammer On  (p) Pull Off  (b) Bend (r) Release (v) Vibrato

Stave 1:

E|-----------------------------------------------------------------------
B|-----------------------------------------------------------------------
G|--------8--8-----------------------------------------------------------
D|--------------10--10--10-----------------------------------------------
A|--------------------------8--8--9--9--9--3--3--5--------------5--3--5--
E|--8--8-----------------------------------1--1--3--------------3--1--3--

Stave 2:

E|-------------------------------
B|-------------------------------
G|----------8--8-----------------
D|----------------10--10--10-----
A|----------------------------8--
E|----8--8-----------------------

Stave 3:

E|------------------------------------------------------------------
B|------------------------------------------------------------------
G|--------8---------------------------------------------------------
D|-----------------10-----------------------------------------------
A|---------------------------8--8--9--------5-----------------6--5--
E|--8--8-----8--8------8--8-----------8--8--3--------------8--4--3--

Stave 4:

E|-----------------------------------------------
B|-----------------------------------------------
G|----------8------------------------------------
D|-------------------10--------------------------
A|-----------------------------8h9--8\6--6/8--6--
E|----8--8-----8--8------8--8--------------------

Stave 5:

E|--_-------------------------------------------------------------
B|--_----------------------------8----------8---------------------
G|--_----------------------------8----------8---------------------
D|--_-------------------------------10--10-----10-----------------
A|--10--10----10--10----10--10-------10--10-----10--8--8--------8--
E|--8---8-----8---8-----8---8-----------------------6--6--------6--

Stave 6:

E|------------------------------
B|------------------------------
G|------------------------------
D|------------------------------
A|----10--8--8--11--11--10--10--
E|------------------------------

http://www.guitartabcreator.com
Guitar Tab Creator is intended to store guitar tab created through the tool. It currently does not support in-line text editing. Any text you place in here will be lost. If you need to comment on your tab, please use the "Tab Notes" section located below.