The Incredible Shiteness of Being

Chords

01234567891011121314151617181920212223
E
B
G
D
A
E
B
0 1 2 3 4 5 6 7 8 9 10 11 12 13 14 15 16 17 18 19 20 21 22 23
(/) Slide Up  (\) Slide Down  (h) Hammer On  (p) Pull Off  (b) Bend (r) Release (v) Vibrato

(W|WW) Whole  (H|HH) Half  (Q|QQ) Quarter  (E|EE) 8th (S|SS) 16th  (T|TT) 32nd (X|XX) 64th

Stave 1:
t:  Q  Q  Q  Q  Q  Q  Q  
E|--------------------------------------------------
B|--------------------------------------------------
G|--------------------------------------------------
D|--------------------------------------------------
A|--2--------------------5--5--4--6-----6--------7--
E|--2--------------------3--5--4--4-----6--------5--
B|--0--------------------3--3--2--4-----4--------5--

Stave 2:
t:  Q  Q  Q  Q  Q  Q  Q  Q  
E|--------------------------------------------------
B|--------------------------------------------------
G|--------------------------------------------------
D|--------------------------------------------------
A|--------------6-----7-----4-----6-----7-----6-----
E|--4-----5-----------------------------------------
B|--------------------------------------------------

Stave 3:
t:  Q  Q  Q  Q  Q  Q  Q  
E|--------------------------------------------------
B|--------------------------------------------------
G|--------------------------------------------------
D|--------------------------------------------------
A|--2--------------------5--5--4--6-----6--------7--
E|--2--------------------3--5--4--4-----6--------5--
B|--0--------------------3--3--2--4-----4--------5--

Stave 4:
t:  QQ  QQ  QQ  QQ  QQ  QQ  QQ  QQ  
E|----------------------------------
B|----------------------------------
G|----------13------14------13------
D|--12--11------11------11------11--
A|----------------------------------
E|----------------------------------
B|----------------------------------

Stave 5:
t:  Q  Q Q  Q Q  Q Q  Q Q  Q  Q  Q Q  Q Q  Q Q  Q Q  Q  
E|----------------------------------------------------------------------
B|----------------------------------------------------------------------
G|----------------------------------------------------------------------
D|----------------------------------------------------------------------
A|--2------3------2------2------3--3--2------3------2------2------5--5--
E|--2------3------2------2------1--1--2------3------2------2------5--5--
B|--0--0v--1--0v--0--0v--0--0v--------0--0v--1--0v--0--0v--0--0v--3--3--

Stave 6:
t:  Q  Q Q  Q Q  Q Q  Q Q  Q  Q  Q Q  Q Q  Q Q  Q Q  
E|-------------------------------------------------------------------
B|-------------------------------------------------------------------
G|-------------------------------------------------------------------
D|-------------------------------------------------------------------
A|--2------3------2------2------3--3--2------3------2------2------5--
E|--2------3------2------2------1--1--2------3------2------2------5--
B|--0--0v--1--0v--0--0v--0--0v--------0--0v--1--0v--0--0v--0--0v--3--

Stave 7:
t:  Q  Q Q  Q Q  Q Q  Q Q  Q  Q  Q Q  Q Q  Q Q  Q Q  Q  
E|----------------------------------------------------------------------
B|----------------------------------------------------------------------
G|----------------------------------------------------------------------
D|----------------------------------------------------------------------
A|--2------3------2------2------3--3--2------3------2------2------5--5--
E|--2------3------2------2------1--1--2------3------2------2------5--5--
B|--0--0v--1--0v--0--0v--0--0v--------0--0v--1--0v--0--0v--0--0v--3--3--

Stave 8:
t:  Q  Q Q  Q Q  Q Q  Q Q  Q  Q  Q Q  Q Q  Q Q  Q Q  Q  
E|----------------------------------------------------------------------
B|----------------------------------------------------------------------
G|----------------------------------------------------------------------
D|----------------------------------------------------------------------
A|--2------3------2------2------3--3--2------3------2------2------6--6--
E|--2------3------2------2------1--1--2------3------2------2------4--4--
B|--0--0v--1--0v--0--0v--0--0v--------0--0v--1--0v--0--0v--0--0v--------

Stave 9:
t:  Q  Q  Q  Q  Q  Q Q Q 
E|-----------------------------------------------------------
B|-----------------------------------------------------------
G|-----------------------------------------------------------
D|-----------------------------------------------------------
A|--2-----------------5--5--7-----------5----------------3v--
E|--2-----------------3--5--5-----------5--------3v--2v------
B|--0-----------------3--3--5-----------3--------------------

Stave 10:
t:  Q  Q  Q  Q  Q  Q Q Q 
E|-----------------------------------------------------------
B|-----------------------------------------------------------
G|-----------------------------------------------------------
D|-----------------------------------------------------------
A|--2-----------------5--5--7----------------------------3v--
E|--2-----------------3--5--5--------------------3v--2v------
B|--0-----------------3--3--5-----------3--------------------

Stave 11:
t:  Q  Q Q  Q Q  Q Q  Q  Q  Q  Q  Q Q  Q Q  Q Q  Q Q Q 
E|--------------------------------------------------------------------------------------
B|--------------------------------------------------------------------------------------
G|--------------------------------------------------------------------------------------
D|--------------------------------------------------------------------------------------
A|--2---------2------2------2-----5--5--7-----5---------5------5------5-------------3v--
E|--2---------2------2------2-----3--5--5-----5---------5------5------5-----3v--2v------
B|--0-----0v--0--0v--0--0v--0-----3--3--5-----3-----3v--3--3v--3--3v--3-----------------

							http://www.guitartabcreator.com
genre
Instruments
{"strings":[[[".","_","_","_","_","_","_",".",".",".",".","_",".","_","_","."],[".","_","_","_","_","_","_",".",".",".",".","_",".","_","_","."],[".","_","_","_","_","_","_",".",".",".",".","_",".","_","_","."],[".","_","_","_","_","_","_",".",".",".",".","_",".","_","_","."],[2,"_","_","_","_","_","_",5,5,4,6,"_",6,"_","_",7],[2,"_","_","_","_","_","_",3,5,4,4,"_",6,"_","_",5],[0,"_","_","_","_","_","_",3,3,2,4,"_",4,"_","_",5]],[[".","_",".","_",".","_",".","_",".","_",".","_",".","_",".","_"],[".","_",".","_",".","_",".","_",".","_",".","_",".","_",".","_"],[".","_",".","_",".","_",".","_",".","_",".","_",".","_",".","_"],[".","_",".","_",".","_",".","_",".","_",".","_",".","_",".","_"],[".","_",".","_",6,"_",7,"_",4,"_",6,"_",7,"_",6,"_"],[4,"_",5,"_",".","_",".","_",".","_",".","_",".","_",".","_"],[".","_",".","_",".","_",".","_",".","_",".","_",".","_",".","_"]],[[".","_","_","_","_","_","_",".",".",".",".","_",".","_","_","."],[".","_","_","_","_","_","_",".",".",".",".","_",".","_","_","."],[".","_","_","_","_","_","_",".",".",".",".","_",".","_","_","."],[".","_","_","_","_","_","_",".",".",".",".","_",".","_","_","."],[2,"_","_","_","_","_","_",5,5,4,6,"_",6,"_","_",7],[2,"_","_","_","_","_","_",3,5,4,4,"_",6,"_","_",5],[0,"_","_","_","_","_","_",3,3,2,4,"_",4,"_","_",5]],[[".",".",".",".",".",".",".","."],[".",".",".",".",".",".",".","."],[".",".",13,".",14,".",13,"."],[12,11,".",11,".",11,".",11],[".",".",".",".",".",".",".","."],[".",".",".",".",".",".",".","."],[".",".",".",".",".",".",".","."]],[[".",".",".",".",".",".",".",".",".",".",".",".",".",".",".",".",".",".",".",".",".",".",".",".",".",".",".","."],[".",".",".",".",".",".",".",".",".",".",".",".",".",".",".",".",".",".",".",".",".",".",".",".",".",".",".","."],[".",".",".",".",".",".",".",".",".",".",".",".",".",".",".",".",".",".",".",".",".",".",".",".",".",".",".","."],[".",".",".",".",".",".",".",".",".",".",".",".",".",".",".",".",".",".",".",".",".",".",".",".",".",".",".","."],[2,".",".",3,".",".",2,".",".",2,".",".",3,3,2,".",".",3,".",".",2,".",".",2,".",".",5,5],[2,".",".",3,".",".",2,".",".",2,".",".",1,1,2,".",".",3,".",".",2,".",".",2,".",".",5,5],[0,0,"v",1,0,"v",0,0,"v",0,0,"v",".",".",0,0,"v",1,0,"v",0,0,"v",0,0,"v",3,3]],[[".",".",".",".",".",".",".",".",".",".",".",".",".",".",".",".",".",".",".",".",".",".",".",".",".",".","."],[".",".",".",".",".",".",".",".",".",".",".",".",".",".",".",".",".",".",".",".",".",".",".",".",".",".","."],[".",".",".",".",".",".",".",".",".",".",".",".",".",".",".",".",".",".",".",".",".",".",".",".",".",".","."],[".",".",".",".",".",".",".",".",".",".",".",".",".",".",".",".",".",".",".",".",".",".",".",".",".",".","."],[2,".",".",3,".",".",2,".",".",2,".",".",3,3,2,".",".",3,".",".",2,".",".",2,".",".",5],[2,".",".",3,".",".",2,".",".",2,".",".",1,1,2,".",".",3,".",".",2,".",".",2,".",".",5],[0,0,"v",1,0,"v",0,0,"v",0,0,"v",".",".",0,0,"v",1,0,"v",0,0,"v",0,0,"v",3]],[[".",".",".",".",".",".",".",".",".",".",".",".",".",".",".",".",".",".",".",".",".",".",".",".",".",".",".","."],[".",".",".",".",".",".",".",".",".",".",".",".",".",".",".",".",".",".",".",".",".",".",".",".",".",".",".","."],[".",".",".",".",".",".",".",".",".",".",".",".",".",".",".",".",".",".",".",".",".",".",".",".",".",".",".","."],[".",".",".",".",".",".",".",".",".",".",".",".",".",".",".",".",".",".",".",".",".",".",".",".",".",".",".","."],[2,".",".",3,".",".",2,".",".",2,".",".",3,3,2,".",".",3,".",".",2,".",".",2,".",".",5,5],[2,".",".",3,".",".",2,".",".",2,".",".",1,1,2,".",".",3,".",".",2,".",".",2,".",".",5,5],[0,0,"v",1,0,"v",0,0,"v",0,0,"v",".",".",0,0,"v",1,0,"v",0,0,"v",0,0,"v",3,3]],[[".",".",".",".",".",".",".",".",".",".",".",".",".",".",".",".",".",".",".",".",".",".",".",".",".",".",".","."],[".",".",".",".",".",".",".",".",".",".",".",".",".",".",".",".",".",".",".",".",".",".",".",".",".",".",".","."],[".",".",".",".",".",".",".",".",".",".",".",".",".",".",".",".",".",".",".",".",".",".",".",".",".",".",".","."],[".",".",".",".",".",".",".",".",".",".",".",".",".",".",".",".",".",".",".",".",".",".",".",".",".",".",".","."],[2,".",".",3,".",".",2,".",".",2,".",".",3,3,2,".",".",3,".",".",2,".",".",2,".",".",6,6],[2,".",".",3,".",".",2,".",".",2,".",".",1,1,2,".",".",3,".",".",2,".",".",2,".",".",4,4],[0,0,"v",1,0,"v",0,0,"v",0,0,"v",".",".",0,0,"v",1,0,"v",0,0,"v",0,0,"v",".","."]],[[".","_","_","_","_","_",".",".",".","_","_","_",".","_","_",".",".",".",".",".","."],[".","_","_","_","_","_",".",".",".","_","_","_",".","_","_",".",".",".",".",".","."],[".","_","_","_","_","_",".",".",".","_","_","_",".","_","_",".",".",".",".",".","."],[".","_","_","_","_","_",".",".",".","_","_","_",".","_","_",".",".",".",".",".","."],[2,"_","_","_","_","_",5,5,7,"_","_","_",5,"_","_",".",".",".",".",3,"v"],[2,"_","_","_","_","_",3,5,5,"_","_","_",5,"_","_",3,"v",2,"v",".","."],[0,"_","_","_","_","_",3,3,5,"_","_","_",3,"_","_",".",".",".",".",".","."]],[[".","_","_","_","_","_",".",".",".","_","_","_",".","_","_",".",".",".",".",".","."],[".","_","_","_","_","_",".",".",".","_","_","_",".","_","_",".",".",".",".",".","."],[".","_","_","_","_","_",".",".",".","_","_","_",".","_","_",".",".",".",".",".","."],[".","_","_","_","_","_",".",".",".","_","_","_",".","_","_",".",".",".",".",".","."],[2,"_","_","_","_","_",5,5,7,"_","_","_",".","_","_",".",".",".",".",3,"v"],[2,"_","_","_","_","_",3,5,5,"_","_","_",".","_","_",3,"v",2,"v",".","."],[0,"_","_","_","_","_",3,3,5,"_","_","_",3,"_","_",".",".",".",".",".","."]],[[".","_",".",".",".",".",".",".",".",".",".","_",".",".",".","_",".","_",".",".",".",".",".",".",".",".",".","_",".",".",".",".",".","."],[".","_",".",".",".",".",".",".",".",".",".","_",".",".",".","_",".","_",".",".",".",".",".",".",".",".",".","_",".",".",".",".",".","."],[".","_",".",".",".",".",".",".",".",".",".","_",".",".",".","_",".","_",".",".",".",".",".",".",".",".",".","_",".",".",".",".",".","."],[".","_",".",".",".",".",".",".",".",".",".","_",".",".",".","_",".","_",".",".",".",".",".",".",".",".",".","_",".",".",".",".",".","."],[2,"_",".",".",2,".",".",2,".",".",2,"_",5,5,7,"_",5,"_",".",".",5,".",".",5,".",".",5,"_",".",".",".",".",3,"v"],[2,"_",".",".",2,".",".",2,".",".",2,"_",3,5,5,"_",5,"_",".",".",5,".",".",5,".",".",5,"_",3,"v",2,"v",".","."],[0,"_",0,"v",0,0,"v",0,0,"v",0,"_",3,3,5,"_",3,"_",3,"v",3,3,"v",3,3,"v",3,"_",".",".",".",".",".","."]]],"numberofstrings":7,"notes":["E","B","G","D","A","E","B"],"capo":0,"stringnotes":["E3","B2","G2","D2","A1","E1","B0"],"comments":["Stave 1:","Stave 2:","Stave 3:","Stave 4:","Stave 5:","Stave 6:","Stave 7:","Stave 8:","Stave 9:","Stave 10:","Stave 11:"],"timing":[["Q",null,null,null,null,null,null,"Q","Q","Q","Q",null,"Q",null,null,"Q"],["Q",null,"Q",null,"Q",null,"Q",null,"Q",null,"Q",null,"Q",null,"Q"],["Q",null,null,null,null,null,null,"Q","Q","Q","Q",null,"Q",null,null,"Q"],["Q","Q","Q","Q","Q","Q","Q","Q"],["Q","Q","Q","Q","Q","Q","Q","Q",null,"Q","Q",null,"Q","Q","Q","Q",null,"Q","Q",null,"Q","Q",null,"Q","Q",null,"Q","Q","Q","Q",null,"Q","Q",null,"Q","Q",null,"Q","Q",null,"Q","Q","Q","Q",null,"Q","Q",null,"Q","Q","Q"],["Q","Q",null,"Q","Q",null,"Q","Q",null,"Q","Q",null,"Q","Q","Q","Q",null,"Q","Q",null,"Q","Q",null,"Q","Q",null,"Q"],["Q","Q",null,"Q","Q",null,"Q","Q",null,"Q","Q",null,"Q","Q","Q","Q","Q","Q","Q",null,"Q","Q",null,"Q","Q",null,"Q","Q"],["Q","Q",null,"Q","Q",null,"Q","Q",null,"Q","Q",null,"Q","Q","Q","Q",null,"Q","Q",null,"Q","Q",null,"Q","Q",null,"Q","Q"],["Q",null,null,"Q",null,null,"Q","Q","Q",null,null,null,"Q",null,null,"Q",null,"Q",null,"Q",null,"Q"],["Q",null,null,null,null,null,"Q","Q","Q",null,null,null,"Q",null,null,"Q",null,"Q",null,"Q"],["Q","Q","Q",null,"Q","Q","Q","Q","Q",null,"Q",null,"Q","Q","Q",null,"Q",null,"Q",null,"Q","Q",null,"Q","Q",null,"Q",null,"Q",null,"Q",null,"Q"]],"timingvisible":true,"tabcounter":34,"stave":10,"totalstaves":11,"instrument":"7guitar","selectedtuning":"7guitar","version":"13"}

Member for

7 months 3 weeks
Submitted by jgnapp on Sun, 2020-05-03 17:34