Sound will begin in 5 seconds

Your Love

Chords
01234567891011121314151617181920212223
E
B
G
D
A
E
B
0 1 2 3 4 5 6 7 8 9 10 11 12 13 14 15 16 17 18 19 20 21 22 23
Song Science #1: How Pros Use 6 Chords to Write Hit Songs
(/) Slide Up  (\) Slide Down  (h) Hammer On  (p) Pull Off  (b) Bend (r) Release (v) Vibrato

Stave 1:

E|--10h12--12/14--10------|--7h9--10----------|--10h12--12/14--10------|--12h14/15------|--
B|--------------------14--|-----------10--10--|--------------------14--|----------------|--
G|--------------------14--|-------------------|--------------------14--|----------------|--
D|---------0--------------|-------------------|---------0--------------|----------------|--
A|--------------------0---|---------------10--|--------------------0---|------------10--|--
E|------------------------|-------7-----------|------------------------|--------0-------|--

Stave 2:

E|-----0--0h2-----------|----------------|-----0--0h2-----------|--0h2h3-----|--
B|--3----------3-----0--|--0h2--3-----0--|--3----------3-----0--|---------3--|--
G|----------------6--6--|----------2--0--|----------------6--6--|---------0--|--
D|--------0-------7--7--|----------------|--------0-------7--7--|------------|--
A|----------------0--0--|-------2--------|----------------0--0--|------------|--
E|----------------------|-------------3--|----------------------|------0--3--|--

Stave 3:

E|-----------------------------|--------------------|-----------------|-------------------------------|--
B|-----------------------2--3--|--3-----------------|--3--3--3-----3--|--2-----2--2--2--3-------------|--
G|--------2-----2-----2--------|--0--2--4--4-----2--|--2--2--2-----2--|--2-----2-----2-----2h4-----2--|--
D|-----4-----4-----------------|-----------0--------|--0--------0-----|-------------------------------|--
A|--5--------------0-----------|--------------------|-----------------|-----0-------------------------|--
E|-----------------------------|--3--------3--3-----|-----------------|--------------3----------3-----|--

Stave 4:

E|--
B|--
G|--
D|--
A|--
E|--

http://www.guitartabcreator.com
Guitar Tab Creator is intended to store guitar tab created through the tool. It currently does not support in-line text editing. Any text you place in here will be lost. If you need to comment on your tab, please use the "Tab Notes" section located below.