Sound will begin in 5 seconds

VIDEO0018

Chords
01234567891011121314151617181920212223
E
B
G
D
A
E
B
0 1 2 3 4 5 6 7 8 9 10 11 12 13 14 15 16 17 18 19 20 21 22 23
Song Science #1: How Pros Use 6 Chords to Write Hit Songs
(/) Slide Up  (\) Slide Down  (h) Hammer On  (p) Pull Off  (b) Bend (r) Release (v) Vibrato

Stave 1:

E|--------
B|--------
G|--------
D|--------
A|--------
D|--0--3--

Stave 2:

E|---------------------------------------------------------------
B|---------------------------------------------------------------
G|---------------------------------------------------------------
D|----------0-----3p0--5p0--3p0-------0-----0-----0-----0-----0--
A|-----0h3-----------------------0h3-----------------------------
D|--0----------0-------------------------0-----0-----3-----5-----

Stave 3:

E|------------------------------------------------------------------
B|------------------------------------------------------------------
G|------------------------------------------------------------------
D|----------0-----3p0--5p0--6p0--5p0--3p0-------0-----0-------------
A|-----0h3---------------------------------0h3----------------------
D|--0----------0-----------------------------------0-----3--3--3/5--

Stave 4:

E|------------------------------------------------
B|------------------------------------------------
G|------------------------------------------------
D|--0--0-----0--0--0-----0--0--0---------3--5--3--
A|--0--0--8--0--0--0--5--0--0--0--10-----3--5--3--
D|--0--0-----0--0--0-----0--0--0------12\3--5--3--

Stave 5:

E|--------------------------------------------------
B|--------------------------------------------------
G|--------------------------------------------------
D|--0--0-----0--0--0-----0--0--0-----0--0--3--5--3--
A|--0--0--8--0--0--0--5--0--0--0--3--0--0--3--5--3--
D|--0--0-----0--0--0-----0--0--0-----0--0--3--5--3--

Stave 6:

E|-------------------------------------------------
B|-------------------------------------------------
G|-------------------------------------------------
D|--0--0----0--0--0-----0--0--0-----0--0--3--5--3--
A|--0--0b5--0--0--0--5--0--0--0--5--0--0--3--5--3--
D|--0--0----0--0--0-----0--0--0-----0--0--3--5--3--

Stave 7:

E|---------------------------------------------------
B|---------------------------------------------------
G|--------10-----------10\5--------5-----------7-----
D|--8--8------8--8--8--------3--3-----3--5--5-----5--
A|--8--8------8--8--8--------3--3-----3--5--5-----5--
D|--8--8------8--8--8--------3--3-----3--5--5-----5--

http://www.guitartabcreator.com
Guitar Tab Creator is intended to store guitar tab created through the tool. It currently does not support in-line text editing. Any text you place in here will be lost. If you need to comment on your tab, please use the "Tab Notes" section located below.