Sound will begin in 5 seconds

TRACY CHAPMAN - FAST CAR COVER BY DOOK HASSELMAN

01234567891011121314151617181920212223
E
B
G
D
A
E
B
0 1 2 3 4 5 6 7 8 9 10 11 12 13 14 15 16 17 18 19 20 21 22 23
Song Science #1: How Pros Use 6 Chords to Write Hit Songs
(/) Slide Up  (\) Slide Down  (h) Hammer On  (p) Pull Off  (b) Bend (r) Release (v) Vibrato

Capo Fret 3

Stave 1:

E|--------------------------------------
B|--------0--1-----3--1-----0--1-----3--
G|-----0--------0--------0--------0-----
D|--------------------------------------
A|--3-----------------------------------
E|--------------------------------------

Stave 2:

E|--------------------------------------------------
B|--------8-----------7-----------5-----------3-----
G|-----0-----0-----0-----0-----0-----0-----0-----0--
D|--------------------------------------------------
A|--7-----------5-----------3-----------2-----------
E|--------------------------------------------------

Stave 3:

E|--------------------------------------------------------------
B|--------5-----------8-----------7-----------3-----------5-----
G|-----0-----0-----0-----0-----0-----0-----0-----0-----0-----0--
D|--------------------------------------------------------------
A|--3-----------7-----------5-----------2-----------3-----------
E|--------------------------------------------------------------

Stave 4:

E|--------------------------------------------------
B|--------0--1--------3-----------8-----------7-----
G|-----0-----------0-----0-----0-----0-----0-----0--
D|--------------------------------------------------
A|--3-----------------------7-----------5-----------
E|--------------3-----------------------------------

Stave 5:

E|----------------------------------------------------------------
B|--------0--1--------3--------8--10------8-----7-----8-----7-----
G|-----0-----------0-----0------------10-----8-----7-----8-----7--
D|----------------------------------------------------------------
A|--3-----------------------7-------------------------------------
E|--------------3-------------------------------------------------

Stave 6:

E|--------------------------------------------------
B|--------0--1--------3-----------8-----------7-----
G|-----0-----------0-----0-----0-----0-----0-----0--
D|--------------------------------------------------
A|--3-----------------------7-----------5-----------
E|--------------3-----------------------------------

Stave 7:

E|-----------------------------------3-----------3--
B|-----------1-----------1-----0-----------0--------
G|-----0-----------0--------------0-----------0-----
D|--------2-----------2-----------------------------
A|--3-----------3-----------------------------------
E|--------------------------3-----------3-----------

Stave 8:

E|-----------------------------------2-----------2--
B|-----------0-----------0-----3-----------3--------
G|-----0-----------0--------------2-----------2-----
D|--------2-----------2-----0-----------0-----------
A|--------------------------------------------------
E|--0-----------0-----------------------------------

Stave 9:

E|-----------------------------------2-----------2--
B|-----------1-----------0-----3-----------3--------
G|-----0-----------0--------------2-----------2-----
D|--------2-----------2-----0-----------0-----------
A|--3-----------------------------------------------
E|--------------0-----------------------------------

Stave 10:

E|-----------------------------
B|-----------1-----------3-----
G|-----0-----------0-----------
D|--------2-----------4--------
A|--3-----------5-----------3--
E|-----------------------------

Stave 11:

E|--------------------------------------------------
B|--------0--1--------3-----------8-----------7-----
G|-----0-----------0-----0-----0-----0-----0-----0--
D|--------------------------------------------------
A|--3-----------------------7-----------5-----------
E|--------------3-----------------------------------

Stave 12:

E|-----------------------------------3-----------3--
B|-----------1-----------1-----0-----------0--------
G|-----0-----------0--------------0-----------0-----
D|--------2-----------2-----------------------------
A|--3-----------3-----------------------------------
E|--------------------------3-----------3-----------

Stave 13:

E|-----------------------------------2-----------2--
B|-----------0-----------0-----2-----------3--------
G|-----0-----------0--------------2-----------2-----
D|--------2-----------2-----0-----------0-----------
A|--------------------------------------------------
E|--0-----------0-----------------------------------

Stave 14:

E|-----------------------------------2-----------2--
B|-----------1-----------0-----3-----------3--------
G|-----0-----------0--------------2-----------2-----
D|--------2-----------1-----0-----------0-----------
A|--3-----------------------------------------------
E|--------------0-----------------------------------

Stave 15:

E|--------------------------
B|-----------1-----------3--
G|-----0-----------0--------
D|--------2-----------4-----
A|--3-----------5-----------
E|--------------------------

Stave 16:

E|--------------------------------------
B|--------0--1-----3--1-----0--1-----3--
G|-----0--------0--------0--------0-----
D|--------------------------------------
A|--3-----------------------------------
E|--------------------------------------

Stave 17:

E|--------------------------------------------------
B|--------8-----------7-----------5-----------3-----
G|-----0-----0-----0-----0-----0-----0-----0-----0--
D|--------------------------------------------------
A|--7-----------5-----------3-----------2-----------
E|--------------------------------------------------

Stave 18:

E|--------------------------------------------------------------
B|--------5-----------8-----------7-----------3-----------5-----
G|-----0-----0-----0-----0-----0-----0-----0-----0-----0-----0--
D|--------------------------------------------------------------
A|--3-----------7-----------5-----------2-----------3-----------
E|--------------------------------------------------------------

Stave 19:

E|-----------3--2--2--0--0--2--3--
B|--------3-----------------------
G|-----2--------------------------
D|--0-----------------------------
A|--------------------------------
E|--------------------------------

http://www.guitartabcreator.com
Guitar Tab Creator is intended to store guitar tab created through the tool. It currently does not support in-line text editing. Any text you place in here will be lost. If you need to comment on your tab, please use the "Tab Notes" section located below.