Sound will begin in 5 seconds

LA FUGA DEL DORIAN - REGULO CARO

Chords
01234567891011121314151617181920212223
E
B
G
D
A
E
B
0 1 2 3 4 5 6 7 8 9 10 11 12 13 14 15 16 17 18 19 20 21 22 23
Song Science #1: How Pros Use 6 Chords to Write Hit Songs
(/) Slide Up  (\) Slide Down  (h) Hammer On  (p) Pull Off  (b) Bend (r) Release (v) Vibrato

Stave 1:

E|--2--2--2--0--2--------2--2--2--0--2--------------------
B|--3--3--3--2--3--3-----3--3--3--2--3--3-----3--3--3--3--
G|-----------------2--------------------2-----2--2--2--2--
D|-----------------0--------------------0-----0--0--0--0--
A|--------------------------------------------------------
E|--------------------------------------------------------

Stave 2:

E|--5-----5--5--3--3--3--2--0--
B|--7-----7--7--5--5--5--3--2--
G|-----------------------------
D|-----------------------------
A|-----------------------------
E|-----------------------------

Stave 3:

E|--------------------------------------------------
B|--2--3--3--2--3-----3--2--3--3--2-----7--5--5--5--
G|--2--4--4--2--4-----4--2--4--4--2-----7--6--6--6--
D|--------------------------------------------------
A|--------------------------------------------------
E|--------------------------------------------------

Stave 4:

E|-----------------------------------------
B|--3--3--3--3--7-----7--7--5--5--3--3--3--
G|--2--2--2--2--7-----7--7--6--6--4--2--2--
D|--0--0--0--0-----------------------0--0--
A|-----------------------------------------
E|-----------------------------------------

Stave 5:

E|--2--2--2--0--2--------2--2--2--0--2--------------------------------
B|--3--3--3--2--3--3-----3--3--3--2--3-----3--3-----3-----3--3--3--3--
G|-----------------2-----------------------2--2-----2-----2--2--2--2--
D|-----------------0-----------------------0--0-----0-----0--0--0--0--
A|--------------------------------------------------------------------
E|--------------------------------------------------------------------

Stave 6:

E|--5--5--5--3--3--3--10--9---
B|--7--7--7--5--5--5--12--10--
G|----------------------------
D|----------------------------
A|----------------------------
E|----------------------------

Stave 7:

E|--2--3--2--2--3--3--3--3--3--2--3--3--3--3--3--2--
B|--2--4--4--2--4--4--4--4--4--2--4--4--4--4--4--2--
G|--------------------------------------------------
D|--------------------------------------------------
A|--------------------------------------------------
E|--------------------------------------------------

Stave 8:

E|--------------------------------
B|--7-----5--5--5-----3--3--3--3--
G|--7-----6--6--6-----2--2--2--2--
D|--------------------0--0--0--0--
A|--------------------------------
E|--------------------------------

Stave 9:

E|--------------------------------------
B|--7--0--8--0--9---0--10--0--9---0--8--
G|--7--0--9--0--10--0--11--0--10--0--9--
D|--------------------------------------
A|--------------------------------------
E|--------------------------------------

Stave 10:

E|--10--10--9---------------------------------
B|-------------12--10--12--10-----------------
G|-----------------------------12--11--9------
D|----------------------------------------12--
A|--------------------------------------------
E|--------------------------------------------

Stave 11:

E|--------------------------------------------------
B|--------------------------------------------------
G|--------------------------------------------------
D|--12--11--9--7--5--4--------4-----5-----7---------
A|----------------------7--5-----7-----9-----10-----
E|--------------------------------------------------

http://www.guitartabcreator.com
Guitar Tab Creator is intended to store guitar tab created through the tool. It currently does not support in-line text editing. Any text you place in here will be lost. If you need to comment on your tab, please use the "Tab Notes" section located below.