Sound will begin in 5 seconds

Melodic Guitar solo

01234567891011121314151617181920212223
E
B
G
D
A
E
B
0 1 2 3 4 5 6 7 8 9 10 11 12 13 14 15 16 17 18 19 20 21 22 23
Song Science #1: How Pros Use 6 Chords to Write Hit Songs
(/) Slide Up  (\) Slide Down  (h) Hammer On  (p) Pull Off  (b) Bend (r) Release (v) Vibrato

Stave 1:

E|-------------------------|--------------------------|------------------------------
B|-------------------------|------------12------------|------------------------------
G|---9/11-9-8--------------|---11/13-11---------------|---9/11-9-8-------------------
D|-9----------9/11-11/13-9-|-9-------------12\11-9h11-|-9----------9/11---9-11-11/13-
A|-------------------------|--------------------------|-----------------9------------
E|-------------------------|--------------------------|------------------------------

Stave 2:

E|--------------|-------------|-------------------------------------------------|-
B|--------------|-------------|--------------------------12---------------------|-
G|--------------|-------------|---9/11-9-8--------------------------11/13-11h13-|-
D|-9-8-9--------|------9-11-9-|-9----------9/11---9-11-9----12\11-9-------------|-
A|-------9/11p9-|-9-11--------|-----------------9-------------------------------|-
E|--------------|-------------|-------------------------------------------------|-

Stave 3:

E|---------------------------------------------------|------------------|-
B|---------------------------------------------------|------------------|-
G|---9/11-9-8------------------------------11--------|------------------|-
D|-9----------9/11---9-11-9h11-11/13-9-8-9-----------|------9-11-9--h11-|-
A|-----------------9--------------------------9/11-9-|-9-11-------------|-
E|---------------------------------------------------|------------------|-

Stave 4:

E|---------------------------------------------------|---------12/14----|-
B|-----------------------------------12------12--/14-|------12-------12-|-
G|---9/11-9-8---------------11/13-11------11---------|-8/11-------------|-
D|-9----------9/11---9-11-9--------------------------|------------------|-
A|-----------------9---------------------------------|------------------|-
E|---------------------------------------------------|------------------|-

Stave 5:

E|---------9/11----|---------------------|-------------------|----14-12-11h12p11----
B|------12------12-|------12-12/14-12-14-|-14h16p14-12\11-12-|-12----------------14-
G|-8/11------------|-8/11----------------|-------------------|----------------------
D|-----------------|---------------------|-------------------|----------------------
A|-----------------|---------------------|-------------------|----------------------
E|-----------------|---------------------|-------------------|----------------------

Stave 6:

E|-------------------------------------------------|----14-12-11h12p11-----------------------14----|-
B|----12-14----14br14-12-11-12-14------------------|-12----------------14-----12-14---b14b14----14b|-
G|-11-------11--------------------11h13--/14\13-11-|-----------------------11-------11-------------|-
D|-------------------------------------------------|-----------------------------------------------|-
A|-------------------------------------------------|-----------------------------------------------|-
E|-------------------------------------------------|-----------------------------------------------|-

Stave 7:

E|----14-12-11h12p11--------------------------------------------------|----14-12-11h12p11----|-
B|-12----------------14------12-14---b14--12-11-12--14----------------|-12----------------14-|-
G|----------------------8/11-------11------------------11h13/14\13-11-|----------------------|-
D|--------------------------------------------------------------------|----------------------|-
A|--------------------------------------------------------------------|----------------------|-
E|--------------------------------------------------------------------|----------------------|-

Stave 8:

E|-
B|-
G|-
D|-
A|-
E|-

http://www.guitartabcreator.com
Guitar Tab Creator is intended to store guitar tab created through the tool. It currently does not support in-line text editing. Any text you place in here will be lost. If you need to comment on your tab, please use the "Tab Notes" section located below.