Sound will begin in 5 seconds

Neo Clasical Run 1

01234567891011121314151617181920212223
E
B
G
D
A
E
B
0 1 2 3 4 5 6 7 8 9 10 11 12 13 14 15 16 17 18 19 20 21 22 23
Song Science #1: How Pros Use 6 Chords to Write Hit Songs
(/) Slide Up  (\) Slide Down  (h) Hammer On  (p) Pull Off  (b) Bend (r) Release (v) Vibrato

Stave 1:

E|--12--8------------------------------------
B|---------10--------------------------------
G|-------------9--------------------------9--
D|----------------10---------------7--10-----
A|--------------------12--------7------------
E|------------------------5--8---------------

Stave 2:

E|--------------------------------------------------------------------------------------------------
B|--------------------------------------------------------------------------------------------------
G|--7--10--9---------------------------7--10--9--7---------------------------7--10--9--7------------
D|------------10--9--7--6--9-----6--9---------------10--9--7--6--9-----6--9---------------10--9--7--
A|----------------------------7-------------------------------------7-------------------------------
E|--------------------------------------------------------------------------------------------------

Stave 3:

E|----------------------10--
B|---------------9--12------
G|--------7--10-------------
D|--6--9--------------------
A|--------------------------
E|--------------------------

Stave 4:

E|--12--8------8------------------------------------------------------------------
B|---------10-----10--9--10----------------9--10----------------9--10-------------
G|---------------------------9---------10---------9---------10---------9----------
D|------------------------------10--9----------------10--9----------------10------
A|----------------------------------------------------------------------------12--
E|--------------------------------------------------------------------------------

Stave 5:

E|------------------------------------------
B|--------------------------------------15--
G|--------------------------13--14--16------
D|--------------12--14--15------------------
A|--11--12--14------------------------------
E|------------------------------------------

Stave 6:

E|--12--8------8------------------------
B|---------10-----10-----10-------------
G|--------------------9------9----------
D|------------------------------10------
A|----------------------------------12--
E|--------------------------------------

http://www.guitartabcreator.com
Guitar Tab Creator is intended to store guitar tab created through the tool. It currently does not support in-line text editing. Any text you place in here will be lost. If you need to comment on your tab, please use the "Tab Notes" section located below.