Sound will begin in 5 seconds

Matrix of Interchangeable Scales: Pentatonic, Minor, & Diminished with Neoclassical Turns

01234567891011121314151617181920212223
E
B
G
D
A
E
B
0 1 2 3 4 5 6 7 8 9 10 11 12 13 14 15 16 17 18 19 20 21 22 23
Song Science #1: How Pros Use 6 Chords to Write Hit Songs
(/) Slide Up  (\) Slide Down  (h) Hammer On  (p) Pull Off  (b) Bend (r) Release (v) Vibrato

Stave 1:

E|----------------------------------------
B|----------------------------------------
G|----------------------------------7--9--
D|--------------5--7---------7--10--------
A|--------5--7--------7--10---------------
E|--5--8----------------------------------

Stave 2:

E|----------------------------------------------------
B|----------------------------------------------------
G|-------------------------------------------7--8--9--
D|--------------------5--7---------7--9--10-----------
A|-----------5--6--7--------7--10---------------------
E|--5--7--8-------------------------------------------

Stave 3:

E|-------------------------------------------
B|-------------------------------------------
G|---------------------------------7--9--10--
D|--------------------5--7--9--10------------
A|-----------5--7--8-------------------------
E|--5--7--8----------------------------------

Stave 4:

E|----------------------------------------------------10--12--13--
B|----------------------------------------10--12--13--------------
G|------------------------------7--9--10--------------------------
D|--------------------7--9--10------------------------------------
A|-----------5--7--8----------------------------------------------
E|--5--7--8-------------------------------------------------------

Stave 5:

E|--------------------------------------------------------------------------------------------------
B|--------------------------------------------------------------------------------------------------
G|-----------------7-----------------7-------------------9-------------------10--9---------------7--
D|--6--9-----6--9-----6--9-----6--9-----7--10-----7--10-----7--10-----7--10---------10-----6--9-----
A|--------7-----------------7------------------7-------------------7--------------------7-----------
E|--------------------------------------------------------------------------------------------------

Stave 6:

E|----------------------------------10--13--
B|---------------------------9--12----------
G|--------------------7--10-----------------
D|--------------6--9------------------------
A|--------5--8------------------------------
E|--4--7------------------------------------

Stave 7:

E|--------------------------------------------------10--12--13--
B|---------------------------------------9--10--12--------------
G|-----------------------------7--9--10-------------------------
D|--------------------6--7--9-----------------------------------
A|-----------5--7--8--------------------------------------------
E|--4--5--7-----------------------------------------------------

http://www.guitartabcreator.com
Guitar Tab Creator is intended to store guitar tab created through the tool. It currently does not support in-line text editing. Any text you place in here will be lost. If you need to comment on your tab, please use the "Tab Notes" section located below.