Sound will begin in 5 seconds

Payphone

Chords
01234567891011121314151617181920212223
E
B
G
D
A
E
B
0 1 2 3 4 5 6 7 8 9 10 11 12 13 14 15 16 17 18 19 20 21 22 23
Song Science #1: How Pros Use 6 Chords to Write Hit Songs
(/) Slide Up  (\) Slide Down  (h) Hammer On  (p) Pull Off  (b) Bend (r) Release (v) Vibrato

Stave 1:

G|--------------16\18--16--16/15-----------------14-------------------------
D|--13--14--16--------------------16------14\15------13-----13--13------11--
A|------------------------------------14-------------11\14--11------11--9---
E|--------------0-----------------------------------------------------------

Stave 2:

G|-------------8--11--11--8--------------------8--11--11--8------8--------------8--11--11--8----------
D|--9h9-----9----------------11--11--11-----9----------------11-----11--5\9--9----------------11--11--
A|----------------------------------------------------------------------------------------------------
E|-------0-------------------------------7------------------------------------------------------------

Stave 3:

G|------------8--11--11--9\13--8--8------------8--11--11--8--------------------8--11--11--8------8------
D|--11-----9-------------------------11-----9----------------11--11--11-----9----------------11-----11--
A|------9-----------------------------------------------------------------------------------------------
E|---------------------------------------0-------------------------------7------------------------------

Stave 4:

G|----------8--11--11--8-------------9--8------9--8--
D|--5\9--9----------------11--11--9--------11--------
A|-----------------------------------9--9------9--9--
E|---------------------------------------------------

Stave 5:

G|--0--0--0-----0-----0-----
D|--------------------------
A|--------------------------
E|--8--------8-----8-----8--

http://www.guitartabcreator.com
Guitar Tab Creator is intended to store guitar tab created through the tool. It currently does not support in-line text editing. Any text you place in here will be lost. If you need to comment on your tab, please use the "Tab Notes" section located below.