Sound will begin in 5 seconds

So Long... Sucker!

Chords
01234567891011121314151617181920212223
E
B
G
D
A
E
B
0 1 2 3 4 5 6 7 8 9 10 11 12 13 14 15 16 17 18 19 20 21 22 23
Song Science #1: How Pros Use 6 Chords to Write Hit Songs
(/) Slide Up  (\) Slide Down  (h) Hammer On  (p) Pull Off  (b) Bend (r) Release (v) Vibrato

Stave 1:

E|--0--------0--0--0-----------0--0--0-----0--0--0--0--0--0--0--0--0-----0--0--0--
B|--4--------4--2--0-----------4--5--4-----0--2--4--2--0--2--4--2--0-----4--5--4--
G|--------------------------------------------------------------------------------
D|--------------------------------------------------------------------------------
A|--------------------------------------------------------------------------------
E|--------------------------------------------------------------------------------

Stave 2:

E|--0--0--0--0--0--0--0--0--0-----0--0--0--0--0--0--0--0--0--0--
B|--0--2--4--2--0--2--4--2--0-----4--5--7--2--2--0--2--4--2--0--
G|--------------------------------------------------------------
D|--------------------------------------------------------------
A|--------------------------------------------------------------
E|--------------------------------------------------------------

Stave 3:

E|--------------
B|--------------
G|--1-----4-----
D|--2--4--4--6--
A|--2--4--2--6--
E|--0--2-----4--

Stave 4:

E|-----------------------------------
B|-----------------------------------
G|--1-----------9--8--4-----9--8--6--
D|--2--------------------------------
A|--2-----------7--6--2-----7--6--4--
E|--0--------------------------------

Stave 5:

E|--------------------------------------------------------------------------------------------
B|--------------------------------------------------------------------------------------------
G|--4--4--4--4--4--4--4--4--------------------------1--1--1--1--1--1--1--1--------------------
D|--4--4--4--4--4--4--4--4--4--4--4--4--4--4--4--4--2--2--2--2--2--2--2--2--6--6--6--6--4--4--
A|--2--2--2--2--2--2--2--2--4--4--4--4--4--4--4--4--2--2--2--2--2--2--2--2--6--6--6--6--4--4--
E|--------------------------2--2--2--2--2--2--2--2--0--0--0--0--0--0--0--0--4--4--4--4--2--2--

Stave 6:

E|-----------------------------------------------
B|-----------------------------------------------
G|--13--11--8--13--11--8--13--11--8--13--11--16--
D|-----------------------------------------------
A|--11--9---6--11--9---6--11--9---6--11--9---14--
E|-----------------------------------------------

Stave 7:

E|--0--0--0--0--0--0--0--0---0---0---0---0-------14----------16--14------------------0---0---0---0---0---
B|--4--5--7--7--9--7--9--12--12--14--12--14--16------16--16----------16--14--16--14--12--12--12--11--11--
G|-------------------------------------------------------------------------------------------------------
D|-------------------------------------------------------------------------------------------------------
A|-------------------------------------------------------------------------------------------------------
E|-------------------------------------------------------------------------------------------------------

Stave 8:

E|--0---0--0--0--0--0--0--
B|--11--9--9--9--7--7--7--
G|------------------------
D|------------------------
A|------------------------
E|------------------------

Stave 9:

E|-----0-----0--0--0--0---
B|-----4-----4--2--4--12--
G|------------------------
D|------------------------
A|------------------------
E|------------------------

http://www.guitartabcreator.com
Guitar Tab Creator is intended to store guitar tab created through the tool. It currently does not support in-line text editing. Any text you place in here will be lost. If you need to comment on your tab, please use the "Tab Notes" section located below.