Sound will begin in 5 seconds

Indifferent

Chords
01234567891011121314151617181920212223
E
B
G
D
A
E
B
0 1 2 3 4 5 6 7 8 9 10 11 12 13 14 15 16 17 18 19 20 21 22 23
Song Science #1: How Pros Use 6 Chords to Write Hit Songs
(/) Slide Up  (\) Slide Down  (h) Hammer On  (p) Pull Off  (b) Bend (r) Release (v) Vibrato

Stave 1:

E|--------------
B|-----2--------
G|--1--2-----6--
D|--2--2--4--7--
A|--2--0--4--7--
E|--0-----2--5--

Stave 2:

E|-----------|-----------
B|-----------|--2-----5--
G|-----1-----|--2-----6--
D|-----2-----|--2--4--7--
A|-----2-----|--0--4--7--
E|-----0-----|-----2--5--

Stave 3:

E|-----------------------------
B|-----------------------------
G|--6--4--2--6--4--2--2--2--2--
D|--6--4--2--6--4--2--2--2--2--
A|--4--2--0--4--2--0--0--0--0--
E|-----------------------------

Stave 4:

E|--------------
B|-----2-----5--
G|--1--2-----6--
D|--2--2--4--7--
A|--2--0--4--7--
E|--0-----2--5--

Stave 5:

E|----------------------
B|----------------------
G|---------7---------7--
D|------------7h9h7-----
A|--7h9h7---------------
E|----------------------

Stave 6:

E|---------------
B|--9---9--9--9--
G|--11--9--7--6--
D|---------------
A|---------------
E|---------------

Stave 7:

E|--------------
B|-----2-----5--
G|--0--2-----6--
D|--2--2--4--7--
A|--2--0--4--7--
E|--0-----2--5--

http://www.guitartabcreator.com
Guitar Tab Creator is intended to store guitar tab created through the tool. It currently does not support in-line text editing. Any text you place in here will be lost. If you need to comment on your tab, please use the "Tab Notes" section located below.