Sound will begin in 5 seconds

I,Human

Chords
01234567891011121314151617181920212223
E
B
G
D
A
E
B
0 1 2 3 4 5 6 7 8 9 10 11 12 13 14 15 16 17 18 19 20 21 22 23
Song Science #1: How Pros Use 6 Chords to Write Hit Songs
(/) Slide Up  (\) Slide Down  (h) Hammer On  (p) Pull Off  (b) Bend (r) Release (v) Vibrato

Stave 1:

E|--------------------------------------------
B|--------------------------------------------
G|--------------------------------------------
D|--------------------------------------------
A|-----5--5--5--5--5-----------9--9--7--7--7--
E|-----2--2--3--3--3-----------7--7--5--5--5--

Stave 2:

E|--------------------------
B|--------------------------
G|--7--7--7--------7-----7--
D|-----------------7--7-----
A|--5--7--5--------5--7--5--
E|--7--5--3-----------5--7--

Stave 3:

E|----------------------------------------------------------------------
B|----------------------------------------------------------------------
G|--14--12--11----------------------14--12--11--------------------------
D|--------------14--12--------------------------14--12--14--16--14--12--
A|----------------------------------------------------------------------
E|----------------------------------------------------------------------

Stave 4:

E|--------------------------------------------------------------
B|--------------------------------------------------------------
G|--14--12--11----------------------14--12--11------------------
D|--------------14--12--------------------------14--12--14--16--
A|--------------------------------------------------------------
E|--------------------------------------------------------------

Stave 5:

E|-----------------------------------
B|-----------------------------------
G|--7--9--7-----------14--14--9--11--
D|-----------------------------------
A|--5--7--5-----------12--12--7--9---
E|-----------------------------------

Stave 6:

E|------------------------------------------------
B|------------------------------------------------
G|------------------------------------------------
D|--------------------5--7--9--10--9--7--9--7--5--
A|------------------------------------------------
E|--3--5--7--5--7--5------------------------------

http://www.guitartabcreator.com
Guitar Tab Creator is intended to store guitar tab created through the tool. It currently does not support in-line text editing. Any text you place in here will be lost. If you need to comment on your tab, please use the "Tab Notes" section located below.