Sound will begin in 5 seconds

Everything Wrong

Chords
01234567891011121314151617181920212223
E
B
G
D
A
E
B
0 1 2 3 4 5 6 7 8 9 10 11 12 13 14 15 16 17 18 19 20 21 22 23
Song Science #1: How Pros Use 6 Chords to Write Hit Songs
(/) Slide Up  (\) Slide Down  (h) Hammer On  (p) Pull Off  (b) Bend (r) Release (v) Vibrato

Stave 1:

E|---------------------------------------------------------------------------------------------0--
B|---------------------------------------------------------------------------------------------0--
G|--1--6--4--2--4--6--1--6--4--2------------------9--------------9--------------9--11--13--11--1--
D|--2--------2--------2--------2--11--11--11--11-----9--9--9--9-----7--7--7--7-----------------2--
A|--2--4--2--0--2--4--2--4--2--0--11--11--11--11--7--9--9--9--9--7--7--7--7--7--7--9---11--9---2--
E|--0-----------------0-----------9---9---9---9------7--7--7--7-----5--5--5--5-----------------0--

Stave 2:

E|--0--------------------------------------------------------------------------------------
B|--0--------------------------------------5--5--5--5--------------------------------------
G|--6--9--9--9--9--------------------------6--6--6--6--9--9--9--9--------------------------
D|--6--9--9--9--9--7--7--7--7--9--9--9--9--6--6--6--6--9--9--9--9--7--7--7--7--9--9--9--9--
A|--4--7--7--7--7--7--7--7--7--9--9--9--9--4--4--4--4--7--7--7--7--7--7--7--7--9--9--9--9--
E|--0--------------5--5--5--5--7--7--7--7--------------------------5--5--5--5--7--7--7--7--

Stave 3:

E|-------------------------------------------------
B|-------------------------------------------------
G|--16--16--13--13--11--11--13--13--11--13--11--9--
D|-------------------------------------------------
A|--14--14--11--11--9---9---11--11--9---11--9---7--
E|-------------------------------------------------

Stave 4:

E|---------------------
B|---------------------
G|--4--6--9--4--6--13--
D|---------------------
A|--2--4--7--2--4--11--
E|---------------------

Stave 5:

E|--0--------------------------------------------
B|--0--------------------------------------------
G|--0--6--4--2--4--6--1--6--4--2--2--2--2--2--2--
D|--2--------2--------2--------2--2--2--2--2--2--
A|--2--4--2-----2--4--2--4--2--0--0--0--0--0--0--
E|--0-----------------0--------------------------

Stave 6:

E|--0--0--0--0--
B|--5--0--0--0--
G|--6--9--6--8--
D|--6--9--7--9--
A|--4--7--7--9--
E|--------5--7--

Stave 7:

E|----------------
B|----------------
G|--------16--13--
D|----------------
A|--7--9--14--11--
E|--5--7----------

Stave 8:

E|-------------
B|-------------
G|--13--11--9--
D|-------------
A|--11--9---7--
E|-------------

http://www.guitartabcreator.com
Guitar Tab Creator is intended to store guitar tab created through the tool. It currently does not support in-line text editing. Any text you place in here will be lost. If you need to comment on your tab, please use the "Tab Notes" section located below.