Sound will begin in 5 seconds

Decisions Decisions - E flat

Chords
01234567891011121314151617181920212223
E
B
G
D
A
E
B
0 1 2 3 4 5 6 7 8 9 10 11 12 13 14 15 16 17 18 19 20 21 22 23
Song Science #1: How Pros Use 6 Chords to Write Hit Songs
(/) Slide Up  (\) Slide Down  (h) Hammer On  (p) Pull Off  (b) Bend (r) Release (v) Vibrato

Stave 1:

E|--------------------------------------------------
B|--------------------------------------------------
G|--7--7--7--7--------------4--4--------------------
D|--7--7--7--7--5--5--5--5--4--4--2--2--5--5--5--5--
A|--5--5--5--5--5--5--5--5--2--2--2--2--5--5--5--5--
E|--------------3--3--3--3--------0--0--3--3--3--3--

Stave 2:

E|--7--------7--9-----7--------7--9------------------
B|-----7-----------9-----7-----------9v--------------
G|--------9-----------------9------------------------
D|---------------------------------------9--9--7--7--
A|---------------------------------------9--9--7--7--
E|---------------------------------------7--7--5--5--

Stave 3:

E|--------------------------------------------
B|--------------------------------------------
G|--------------------7--7--------------------
D|--5--5--5--5--9--9--7--7--7--7--5--5--7--7--
A|--5--5--5--5--9--9--5--5--7--7--5--5--7--7--
E|--3--3--3--3--7--7--------5--5--3--3--5--5--

Stave 4:

E|------7-----5------------------7------7------7------7-----5-----5-----5-----5--------------------------
B|--10-----7-----7--7--5--3--10-----10-----10-----10-----7-----7-----7-----7-----5p7--7h5h3--3--5--7--7--
G|-------------------------------------------------------------------------------------------------------
D|-------------------------------------------------------------------------------------------------------
A|-------------------------------------------------------------------------------------------------------
E|-------------------------------------------------------------------------------------------------------

Stave 5:

E|--------
B|--5--3--
G|--------
D|--------
A|--------
E|--------

Stave 6:

E|-----
B|-----
G|--7--
D|--x--
A|--5--
E|-----

Stave 7:

E|------------------------------------------
B|------------------------------------------
G|--7--14--11--9--11--9--7--14--14--14--14--
D|------------------------------------------
A|--5--12--9---7--9---7--5--12--12--12--12--
E|------------------------------------------

http://www.guitartabcreator.com
Guitar Tab Creator is intended to store guitar tab created through the tool. It currently does not support in-line text editing. Any text you place in here will be lost. If you need to comment on your tab, please use the "Tab Notes" section located below.