Sound will begin in 5 seconds

The Star Spangled Banner

01234567891011121314151617181920212223
E
B
G
D
A
E
B
0 1 2 3 4 5 6 7 8 9 10 11 12 13 14 15 16 17 18 19 20 21 22 23
Song Science #1: How Pros Use 6 Chords to Write Hit Songs
(/) Slide Up  (\) Slide Down  (h) Hammer On  (p) Pull Off  (b) Bend (r) Release (v) Vibrato

Stave 1:

E|-----------------------------20--18--16-------------------------20--18--16------
B|----------------------21-------------------------16-----16--16--------------20--
G|--20--17------17--20---------------------17--19---------------------------------
D|----------18--------------------------------------------------------------------
A|--------------------------------------------------------------------------------
E|--------------------------------------------------------------------------------
A|--------------------------------------------------------------------------------

Stave 2:

E|----------16--16--------------
B|--18--20----------16----------
G|----------------------17------
D|--------------------------18--
A|------------------------------
E|------------------------------
A|------------------------------

Stave 3:

E|--20--20--20--21--23--23--21--20--18--20--21--21-----21--20--18----------
B|-----------------------------------------------------------------21--20--
G|-------------------------------------------------------------------------
D|-------------------------------------------------------------------------
A|-------------------------------------------------------------------------
E|-------------------------------------------------------------------------
A|-------------------------------------------------------------------------

Stave 4:

E|--------------------------
B|--18--20--21--------------
G|------------------19--20--
D|--------------22----------
A|--------------------------
E|--------------------------
A|--------------------------

Stave 5:

E|----------------------------------18--21--20--18--------------------
B|------21--21--21--20--18--18--18------------------21--21--20--------
G|--20----------------------------------------------------------------
D|--------------------------------------------------------------------
A|--------------------------------------------------------------------
E|--------------------------------------------------------------------
A|--------------------------------------------------------------------

Stave 6:

E|--------------18--20--21--23------18--20--21--18---------------------
B|----------21------------------21------------------21-----------------
G|--20--20-------------------------------------------------------------
D|---------------------------------------------------------------------
A|---------------------------------------------------------------------
E|---------------------------------------------------------------------
A|---------------------------------------------------------------------

http://www.guitartabcreator.com
Guitar Tab Creator is intended to store guitar tab created through the tool. It currently does not support in-line text editing. Any text you place in here will be lost. If you need to comment on your tab, please use the "Tab Notes" section located below.