Sound will begin in 5 seconds

Radioactive

01234567891011121314151617181920212223
E
B
G
D
A
E
B
0 1 2 3 4 5 6 7 8 9 10 11 12 13 14 15 16 17 18 19 20 21 22 23
Song Science #1: How Pros Use 6 Chords to Write Hit Songs
(/) Slide Up  (\) Slide Down  (h) Hammer On  (p) Pull Off  (b) Bend (r) Release (v) Vibrato

Stave 1:

E|-------------------------------------------------------------------------------------------------------
B|-------------------------------------------------------------------------------------------------------
G|-------------------------------------------------------------------------------------------13----------
D|--15--13----------13---------15--13-----------------15--13----------13---------15--13----------13--15--
A|----------15--15------15-------------15--15--15-------------15--15------15-------------15--------------
E|-------------------------------------------------------------------------------------------------------
A|-------------------------------------------------------------------------------------------------------

Stave 2:

E|----------------------------------------------------------------------------------------------------13--
B|--------------------------------------------------------------------------------------------------------
G|--------------------------------------------------------------------------------------15-----17---------
D|--15--13----------13---------15--13-----------------15--13----------13---------15-----------------------
A|----------15--15------15-------------15--15--15-------------15--15------15------------------------------
E|--------------------------------------------------------------------------------------------------------
A|--------------------------------------------------------------------------------------------------------

Stave 3:

E|--------------------------------------------
B|--------------------------------------------
G|--------------------------------------------
D|--------------------------------------------
A|--------------------------------------------
E|--------------------------------------------
A|--------------------------------------------

Stave 4:

E|---------------------------------------------------------------------
B|---------------------------------------------------------------------
G|---------------------------------------------------------------------
D|--15--------17--13------------15--------17--13---------17--15--------
A|-----------------------17--------------------------13----------------
E|---------------------------------------------------------------------
A|---------------------------------------------------------------------

Stave 5:

E|---------------------------------------------------------------
B|---------------------------------------------------------------
G|--17-----15-----15-------------17-----15-----15----------------
D|--------------------17--15-----------------------17--15--------
A|---------------------------------------------------------------
E|---------------------------------------------------------------
A|---------------------------------------------------------------

Stave 6:

E|-------------------------------------------------------------------------------------------
B|------------------------------------------------16--16--16--16--15-----15--15--15--15--13--
G|--17--15--13--15---------17--15--13--15----------------------------------------------------
D|------------------15---------------------15------------------------------------------------
A|-------------------------------------------------------------------------------------------
E|-------------------------------------------------------------------------------------------
A|-------------------------------------------------------------------------------------------

Stave 7:

E|-------------------------------------------------------------------------------------------
B|------------------------------------------------16--16--16--16--15-----15--15--15--15--13--
G|--17--15--13--15---------17--15--13--15----------------------------------------------------
D|------------------15---------------------15------------------------------------------------
A|-------------------------------------------------------------------------------------------
E|-------------------------------------------------------------------------------------------
A|-------------------------------------------------------------------------------------------

Stave 8:

E|--13--------14----------------13--------14-------------
B|----------------16-----14-------------------16-----14--
G|-------------------------------------------------------
D|-------------------------------------------------------
A|-------------------------------------------------------
E|-------------------------------------------------------
A|-------------------------------------------------------

http://www.guitartabcreator.com
Guitar Tab Creator is intended to store guitar tab created through the tool. It currently does not support in-line text editing. Any text you place in here will be lost. If you need to comment on your tab, please use the "Tab Notes" section located below.