Sound will begin in 5 seconds

Paralyzer

01234567891011121314151617181920212223
E
B
G
D
A
E
B
0 1 2 3 4 5 6 7 8 9 10 11 12 13 14 15 16 17 18 19 20 21 22 23
Song Science #1: How Pros Use 6 Chords to Write Hit Songs
(/) Slide Up  (\) Slide Down  (h) Hammer On  (p) Pull Off  (b) Bend (r) Release (v) Vibrato

Stave 1:

E|------------------------------------------------------------------18--18--18--18--18--
B|-----------------------------------------------------------10-------------------------
G|--12--10--8----------8-----12--10--8----------8-----10--------------------------------
D|-------------12--12-------------------12--12------------------------------------------
A|--------------------------------------------------------------------------------------
E|--------------------------------------------------------------------------------------
A|--------------------------------------------------------------------------------------

Stave 2:

E|----------------------------------------------------------------------------
B|----------------------------------------------------------------------------
G|---------12--10--8------8--------------------------------------------8------
D|-----10-------------12-----10-----10--12--12--12-----12--12--12--12-----10--
A|----------------------------------------------------------------------------
E|----------------------------------------------------------------------------
A|----------------------------------------------------------------------------

Stave 3:

E|----------------------------------------------------------------------------
B|----------------------------------------------------------------------------
G|---------12--10--8------8--------------------------------------------8------
D|-----10-------------12-----10-----10--12--12--12-----12--12--12--12-----10--
A|----------------------------------------------------------------------------
E|----------------------------------------------------------------------------
A|----------------------------------------------------------------------------

Stave 4:

E|---------------------------------------------------8--8--8--8--8--8--8--8--
B|---------------------------------------10--10--10--------------------------
G|---------12--10--8--12--12--12-----12--------------------------------------
D|-----10--------------------------------------------------------------------
A|---------------------------------------------------------------------------
E|---------------------------------------------------------------------------
A|---------------------------------------------------------------------------

Stave 5:

E|--8--8--8--8-----8-----8--8--8--8----------------------------------
B|--------------8--------------------8-------------------------------
G|--------------------------------------10-----10--10--8--12--10--8--
D|-------------------------------------------------------------------
A|-------------------------------------------------------------------
E|-------------------------------------------------------------------
A|-------------------------------------------------------------------

Stave 6:

E|--8--8--8--11--8--8--
B|---------------------
G|---------------------
D|---------------------
A|---------------------
E|---------------------
A|---------------------

Stave 7:

E|--8--8--8--8-----8-----8--8--8--8----------------------------------
B|--------------8--------------------8-------------------------------
G|--------------------------------------10-----10--10--8--12--10--8--
D|-------------------------------------------------------------------
A|-------------------------------------------------------------------
E|-------------------------------------------------------------------
A|-------------------------------------------------------------------

Stave 8:

E|--8--8--8--11--8--8--
B|---------------------
G|---------------------
D|---------------------
A|---------------------
E|---------------------
A|---------------------

Stave 9:

E|-----------------------------------------------------------------------------------------------------
B|-----------------------------------------------------------------------------------------------------
G|-----------------------------------------------------------------------------------------------------
D|-----------------------------------------------------------------------------------------------------
A|-----------------------------------------------------------------------------------------------------
E|-----------------------------------------------------------------------------------------------------
A|-----------------------------------------------------------------------------------------------------

Stave 10:

E|-----8--8--8--8-----8-----8--8--8--8----------------------------------
B|-----------------8--------------------8-------------------------------
G|-----------------------------------------10-----10--10--8--12--10--8--
D|----------------------------------------------------------------------
A|----------------------------------------------------------------------
E|----------------------------------------------------------------------
A|----------------------------------------------------------------------

Stave 11:

E|--8--8--8--11--8--8--
B|---------------------
G|---------------------
D|---------------------
A|---------------------
E|---------------------
A|---------------------

Stave 12:

E|-----8--8--8--8-----8-----8--8--8--8----------------------------------
B|-----------------8--------------------8-------------------------------
G|-----------------------------------------10-----10--10--8--12--10--8--
D|----------------------------------------------------------------------
A|----------------------------------------------------------------------
E|----------------------------------------------------------------------
A|----------------------------------------------------------------------

Stave 13:

E|----------------------20--
B|--13--13--13--16--13------
G|--------------------------
D|--------------------------
A|--------------------------
E|--------------------------
A|--------------------------

http://www.guitartabcreator.com
Guitar Tab Creator is intended to store guitar tab created through the tool. It currently does not support in-line text editing. Any text you place in here will be lost. If you need to comment on your tab, please use the "Tab Notes" section located below.