Sound will begin in 5 seconds

I Get Around

01234567891011121314151617181920212223
E
B
G
D
A
E
B
0 1 2 3 4 5 6 7 8 9 10 11 12 13 14 15 16 17 18 19 20 21 22 23
Song Science #1: How Pros Use 6 Chords to Write Hit Songs
(/) Slide Up  (\) Slide Down  (h) Hammer On  (p) Pull Off  (b) Bend (r) Release (v) Vibrato

Stave 1:

E|---------------------------------------------------------------------------
B|--11--11--11--11--11----------------------------16--15--13-----------------
G|----------------------12--12--12--12-----12------------------------12--14--
D|---------------------------------------------------------------15----------
A|---------------------------------------------------------------------------
E|---------------------------------------------------------------------------
A|---------------------------------------------------------------------------

Stave 2:

E|-----------------------------------------------------------------------------------------
B|------------------------------------------13--15--16----------------16--15--13-----------
G|--15--------15--14--15--16--------16--16--------------------12--12-----------------------
D|-----------------------------------------------------------------------------------------
A|-----------------------------------------------------------------------------------------
E|-----------------------------------------------------------------------------------------
A|-----------------------------------------------------------------------------------------

Stave 3:

E|--------------------------------------------------------------------------------------------------
B|--------------------------------------------------------------------------------------------------
G|--------------------------------------------------------------------------------------------------
D|-----------------------------------------------------------------------10--12--10--14--10---------
A|-----------------------------------------------------------10--12--14----------------------10-----
E|--------------------------------------------------------------------------------------------------
A|--------------------------------------------------------------------------------------------------

Stave 4:

E|-----------------------------------------------------------------------------------------
B|--13---------------13---------------13---------------13----------------------------------
G|---------9--10------------9--10------------9--10------------9--10--10--12--14--15--------
D|-----------------------------------------------------------------------------------------
A|-----------------------------------------------------------------------------------------
E|-----------------------------------------------------------------------------------------
A|-----------------------------------------------------------------------------------------

Stave 5:

E|-------------------------------------------------------------------------------------------
B|--------------------------------13--15--16----------------16--15--13-----------------------
G|--15--14--15--16--------16--16--------------------12--12-----------------------------------
D|-------------------------------------------------------------------------------------------
A|-------------------------------------------------------------------------------------------
E|-------------------------------------------------------------------------------------------
A|-------------------------------------------------------------------------------------------

Stave 6:

E|----------------------------------------------------------------------------
B|----------------------------------------------------------------------------
G|--16--14--12------14--12------14--15--15--15--15--15--12--12--12--12--------
D|--------------15----------15------------------------------------------------
A|----------------------------------------------------------------------------
E|----------------------------------------------------------------------------
A|----------------------------------------------------------------------------

Stave 7:

E|------------------------------------
B|---------16--15--13-----------------
G|--12------------------------12--14--
D|------------------------15----------
A|------------------------------------
E|------------------------------------
A|------------------------------------

Stave 8:

E|-----------------------------------------------------------------------------------------------
B|------------------------------------------13--15--16----------------16--15--13-----------------
G|--15--------15--14--15--16--------16--16--------------------12--12-----------------------------
D|-----------------------------------------------------------------------------------------------
A|-----------------------------------------------------------------------------------------------
E|-----------------------------------------------------------------------------------------------
A|-----------------------------------------------------------------------------------------------

Stave 9:

E|------------------------------
B|------------------------------
G|------12--14--15--------------
D|--15--------------------------
A|------------------------------
E|------------------------------
A|------------------------------

http://www.guitartabcreator.com
Guitar Tab Creator is intended to store guitar tab created through the tool. It currently does not support in-line text editing. Any text you place in here will be lost. If you need to comment on your tab, please use the "Tab Notes" section located below.