Sound will begin in 5 seconds

Hilltop Fight Song

01234567891011121314151617181920212223
E
B
G
D
A
E
B
0 1 2 3 4 5 6 7 8 9 10 11 12 13 14 15 16 17 18 19 20 21 22 23
Song Science #1: How Pros Use 6 Chords to Write Hit Songs
(/) Slide Up  (\) Slide Down  (h) Hammer On  (p) Pull Off  (b) Bend (r) Release (v) Vibrato

Stave 1:

E|------------------22-----20--18------18--------------------18----------22--
B|---------------------------------20------18--------20--22------20--18------
G|--19--20--21--22-----------------------------------------------------------
D|---------------------------------------------------------------------------
A|---------------------------------------------------------------------------
E|---------------------------------------------------------------------------
A|---------------------------------------------------------------------------

Stave 2:

E|------18--20------22--21--20--------------
B|--22----------20--------------22--20--18--
G|------------------------------------------
D|------------------------------------------
A|------------------------------------------
E|------------------------------------------
A|------------------------------------------

Stave 3:

E|------------------22--20--18------18--22-----20--18------18----------22--
B|------------------------------20---------------------20------20--18------
G|--19--20--21--22---------------------------------------------------------
D|-------------------------------------------------------------------------
A|-------------------------------------------------------------------------
E|-------------------------------------------------------------------------
A|-------------------------------------------------------------------------

Stave 4:

E|--23--22--20--------------22--20--18-----18--
B|--------------20--19--20---------------------
G|---------------------------------------------
D|---------------------------------------------
A|---------------------------------------------
E|---------------------------------------------
A|---------------------------------------------

http://www.guitartabcreator.com
Guitar Tab Creator is intended to store guitar tab created through the tool. It currently does not support in-line text editing. Any text you place in here will be lost. If you need to comment on your tab, please use the "Tab Notes" section located below.