Sound will begin in 5 seconds

Hang On Sloopy

01234567891011121314151617181920212223
E
B
G
D
A
E
B
0 1 2 3 4 5 6 7 8 9 10 11 12 13 14 15 16 17 18 19 20 21 22 23
Song Science #1: How Pros Use 6 Chords to Write Hit Songs
(/) Slide Up  (\) Slide Down  (h) Hammer On  (p) Pull Off  (b) Bend (r) Release (v) Vibrato

Stave 1:

E|--11-----11--13--13-----11--11--11--11-------------11-----14--11--13-------------11--13--11-----11--13--13--
B|-------------------------------------------11--13------------------------11--13-----------------------------
G|------------------------------------------------------------------------------------------------------------
D|------------------------------------------------------------------------------------------------------------
A|------------------------------------------------------------------------------------------------------------
E|------------------------------------------------------------------------------------------------------------
A|------------------------------------------------------------------------------------------------------------

Stave 2:

E|--11--11--11--11-----11-------------14--11--13---------14--13------11--------
B|-------------------------11--13--------------------15----------13------------
G|-----------------------------------------------------------------------------
D|-----------------------------------------------------------------------------
A|-----------------------------------------------------------------------------
E|-----------------------------------------------------------------------------
A|-----------------------------------------------------------------------------

Stave 3:

E|------------------------11-----13--11--13-----11-----11--11--11--11--13--11-------------------------11--
B|--15-----13-----11--13-------------------------------------------------------15-----11--13--13--15------
G|--------------------------------------------------------------------------------------------------------
D|--------------------------------------------------------------------------------------------------------
A|--------------------------------------------------------------------------------------------------------
E|--------------------------------------------------------------------------------------------------------
A|--------------------------------------------------------------------------------------------------------

Stave 4:

E|--13--11--13-----11-----11--11-----------------------------11-----13--11--13-----11-----11--11--13--11------
B|--------------------------------13--13--15-----15--15--13-----------------------------------------------15--
G|------------------------------------------------------------------------------------------------------------
D|------------------------------------------------------------------------------------------------------------
A|------------------------------------------------------------------------------------------------------------
E|------------------------------------------------------------------------------------------------------------
A|------------------------------------------------------------------------------------------------------------

Stave 5:

E|--------------------------------------11--11--11-----11--13--13--11--11--11--11--
B|--13-----11--------13-----15--15--15---------------------------------------------
G|---------------------------------------------------------------------------------
D|---------------------------------------------------------------------------------
A|---------------------------------------------------------------------------------
E|---------------------------------------------------------------------------------
A|---------------------------------------------------------------------------------

Stave 6:

E|------11--11-----11--13--13--11--11--11--11--------------------------------------3--
B|--15--------------------------------------------------15-----11--13--13--15--13-----
G|------------------------------------------------------------------------------------
D|------------------------------------------------------------------------------------
A|------------------------------------------------------------------------------------
E|------------------------------------------------------------------------------------
A|------------------------------------------------------------------------------------

Stave 7:

E|---------------------13--15--13--------11-----11--13--13--11--11--11--11-----11--11--11--14--13----------11--
B|--11--13--13--15---------------------------------------------------------------------------------11--13------
G|-------------------------------------------------------------------------------------------------------------
D|-------------------------------------------------------------------------------------------------------------
A|-------------------------------------------------------------------------------------------------------------
E|-------------------------------------------------------------------------------------------------------------
A|-------------------------------------------------------------------------------------------------------------

http://www.guitartabcreator.com
Guitar Tab Creator is intended to store guitar tab created through the tool. It currently does not support in-line text editing. Any text you place in here will be lost. If you need to comment on your tab, please use the "Tab Notes" section located below.