Sound will begin in 5 seconds

Grenade

01234567891011121314151617181920212223
E
B
G
D
A
E
B
0 1 2 3 4 5 6 7 8 9 10 11 12 13 14 15 16 17 18 19 20 21 22 23
Song Science #1: How Pros Use 6 Chords to Write Hit Songs
(/) Slide Up  (\) Slide Down  (h) Hammer On  (p) Pull Off  (b) Bend (r) Release (v) Vibrato

Stave 1:

E|---------------------------------------------------------------------------------------------
B|--11--11------11--11------11--11--11--11--11--13---------------------------------------------
G|--------------------------------------------------14--14--14--12--14--14--12--14-------------
D|----------12----------12----------------------------------------------------------12--12-----
A|---------------------------------------------------------------------------------------------
E|---------------------------------------------------------------------------------------------
A|---------------------------------------------------------------------------------------------

Stave 2:

E|-------------------------------------------------------------------------------------
B|--11--11------11--11------11--11--11--11--13-----------------------------------------
G|----------------------------------------------14--14--14--12-----14--14--12--14--12--
D|----------12----------12-------------------------------------------------------------
A|-------------------------------------------------------------------------------------
E|-------------------------------------------------------------------------------------
A|-------------------------------------------------------------------------------------

Stave 3:

E|------------------------------------------------------------------------------------------------
B|--15--15--13--13--11----------13-----13--11--11--------------13-----13--11--11------------------
G|----------------------14--14---------------------14------12---------------------14--12--12------
D|-----------------------------------------------------15-------------------------------------12--
A|------------------------------------------------------------------------------------------------
E|------------------------------------------------------------------------------------------------
A|------------------------------------------------------------------------------------------------

Stave 4:

E|---------------------------------------------------------------------------------------------------
B|------15-----15--13--13--11----------13-----13--11--11-----------------13--13--11--13--13--11--15--
G|--14-------------------------14--14---------------------14--12--12---------------------------------
D|---------------------------------------------------------------------------------------------------
A|---------------------------------------------------------------------------------------------------
E|---------------------------------------------------------------------------------------------------
A|---------------------------------------------------------------------------------------------------

Stave 5:

E|----------------------------------------------------------------------------------------------------
B|--13--13--11--13--15--11---------13--13--11--13--15--11-------------11------13--11--13--15--11------
G|--------------------------12-----------------------------12-------------14----------------------12--
D|----------------------------------------------------------------15----------------------------------
A|----------------------------------------------------------------------------------------------------
E|----------------------------------------------------------------------------------------------------
A|----------------------------------------------------------------------------------------------------

Stave 6:

E|-----------------------------------------------------------------------------------------------------------------------
B|--11--11--11--13--11--13--15--11------------11-----13--------------------------11--13--11--14--13--11--13--13--11------
G|----------------------------------12-----------------------------11-----12-----------------------------------------12--
D|----------------------------------------------------------15-----------------------------------------------------------
A|-----------------------------------------------------------------------------------------------------------------------
E|-----------------------------------------------------------------------------------------------------------------------
A|-----------------------------------------------------------------------------------------------------------------------

Stave 7:

E|---------------------------------------------------------------------------------------------------
B|--13--13--13--13--11--15-----13--11--13--11--13--11--15--15--------15--13--13--11--15--13--11------
G|-----------------------------------------------------------------------------------------------12--
D|---------------------------------------------------------------------------------------------------
A|---------------------------------------------------------------------------------------------------
E|---------------------------------------------------------------------------------------------------
A|---------------------------------------------------------------------------------------------------

Stave 8:

E|--------------------------------------------------------------------------------------------------
B|--------11--13--11--13--11--13--11--15--15--13--11--15--15-----15--15-----15--15--13--13--15--15--
G|--------------------------------------------------------------------------------------------------
D|--------------------------------------------------------------------------------------------------
A|--------------------------------------------------------------------------------------------------
E|--------------------------------------------------------------------------------------------------
A|--------------------------------------------------------------------------------------------------

Stave 9:

E|-------------------------------------------------------------------------------------------------------
B|-----13--13--11--13--15--11---------13--13--11--13--15--11-------------11------13--11--13--15--11------
G|-----------------------------12-----------------------------12-----10------14----------------------12--
D|-------------------------------------------------------------------------------------------------------
A|-------------------------------------------------------------------------------------------------------
E|-------------------------------------------------------------------------------------------------------
A|-------------------------------------------------------------------------------------------------------

Stave 10:

E|--------------------------------------------------------------------------------------------------------------
B|--11--11--11--13--11--13--15--11------------11--13--------------------11--13--11--14--13--11--13--13--11------
G|----------------------------------12-------------------10--11--12-----------------------------------------12--
D|--------------------------------------------------------------------------------------------------------------
A|--------------------------------------------------------------------------------------------------------------
E|--------------------------------------------------------------------------------------------------------------
A|--------------------------------------------------------------------------------------------------------------

Stave 11:

E|---------------------------------------------------------------------------------------
B|--13--13--13--13--11-------------13--13--13--13--11---------13--13--13--13--11--15-----
G|----------------------12-----------------------------14--------------------------------
D|--------------------------12-----------------------------------------------------------
A|---------------------------------------------------------------------------------------
E|---------------------------------------------------------------------------------------
A|---------------------------------------------------------------------------------------

Stave 12:

E|-------------------------------------------------------------
B|--13--13--11--13--11---------13--13--13--13--11--------------
G|----------------------14-------------------------12--10--12--
D|-------------------------------------------------------------
A|-------------------------------------------------------------
E|-------------------------------------------------------------
A|-------------------------------------------------------------

http://www.guitartabcreator.com
Guitar Tab Creator is intended to store guitar tab created through the tool. It currently does not support in-line text editing. Any text you place in here will be lost. If you need to comment on your tab, please use the "Tab Notes" section located below.