Sound will begin in 5 seconds

Barbara Ann

Chords
01234567891011121314151617181920212223
E
B
G
D
A
E
B
0 1 2 3 4 5 6 7 8 9 10 11 12 13 14 15 16 17 18 19 20 21 22 23
Song Science #1: How Pros Use 6 Chords to Write Hit Songs
(/) Slide Up  (\) Slide Down  (h) Hammer On  (p) Pull Off  (b) Bend (r) Release (v) Vibrato

Stave 1:

E|--------------------------------------------------------------------------------------------------
B|--------------------------------------------------------------------------------------------------
G|---------------14------------14--14-------------14--17--14--14-----------------14--14-------------
D|--15---------------------17----------17--15---------------------17--15-----17----------17--15-----
A|--------------------------------------------------------------------------------------------------
E|--------------------------------------------------------------------------------------------------
A|--------------------------------------------------------------------------------------------------

Stave 2:

E|--------------------------------------------------------------------------------------------------------
B|--------------------------------------------------------------------------------------------------------
G|--------------------------------------14---------14------14---------------------------------------------
D|--15--15--15--17--17--17--17--17--17---------17------17------17--15------15--15--15--15--15--15--15-----
A|---------------------------------------------------------------------17---------------------------------
E|--------------------------------------------------------------------------------------------------------
A|--------------------------------------------------------------------------------------------------------

Stave 3:

E|----------------------------------------------------------------------------------------------------
B|--------------------------------------------------------------------15--15--------------------------
G|----------------------------------------------------------------------------17--17--14--------------
D|--15--15--15--15-----15--15--15--15--15-----15--15--15--15--15--15----------------------17--15------
A|------------------------------------------------------------------------------------------------17--
E|----------------------------------------------------------------------------------------------------
A|----------------------------------------------------------------------------------------------------

Stave 4:

E|-------------------------------------------------------------------------------------------
B|-------------------------------------------------------------------------------------------
G|-------------------------14--14--------------------------------------------------------14--
D|--15--15--15--15-----17----------17--15--------15--15--15--17--17--17--17--17--17--17------
A|-------------------------------------------------------------------------------------------
E|-------------------------------------------------------------------------------------------
A|-------------------------------------------------------------------------------------------

Stave 5:

E|-------------------------------------------------------------
B|-------------------------------------------------------------
G|------14------14---------------------------------------------
D|--17------17------17--15------15--15--15--15--15--15--15-----
A|--------------------------17---------------------------------
E|-------------------------------------------------------------
A|-------------------------------------------------------------

Stave 6:

E|-----------------------------------------------------------------------------------------------------
B|--18--------18--------18--------18----------------------16--18--18--18--18--18--18--18---------------
G|--------------------------------17--------17-----15--------------------------------------------------
D|--15--------15--------15-------------------------------------------------------------------15--------
A|-----------------------------------------------------------------------------------------------------
E|-----------------------------------------------------------------------------------------------------
A|-----------------------------------------------------------------------------------------------------

Stave 7:

E|-------------------------------------------------------------------------------------
B|-------------------------------------------------------------------------------------
G|--14------------14--14-------------14--17--14--14-----------------14--14-------------
D|------------17----------17--15---------------------17--15-----17----------17--15-----
A|-------------------------------------------------------------------------------------
E|-------------------------------------------------------------------------------------
A|-------------------------------------------------------------------------------------

Stave 8:

E|-------------------------------------------------------------------------------------------------------------
B|-------------------------------------------------------------------------------------------------------------
G|--------------------------------------14---------14------14--------------------------------------------------
D|--15--15--15--17--17--17--17--17--17---------17------17------17--15------15--15--15--15--15--15--15--15--15--
A|---------------------------------------------------------------------17--------------------------------------
E|-------------------------------------------------------------------------------------------------------------
A|-------------------------------------------------------------------------------------------------------------

Stave 9:

E|-------------------------------------------------------------------------------------------------------
B|-------------------------------------------------------------------------------------------------------
G|--------------------------14---------14------14----------------------------------------------17--------
D|--17--17--17--17--17--17---------17------17------17--15------15--15--15--15--15--15--15--15------------
A|---------------------------------------------------------17--------------------------------------------
E|-------------------------------------------------------------------------------------------------------
A|-------------------------------------------------------------------------------------------------------

Stave 10:

E|----------------------------------
B|--15--18--18--18--18--18--18--18--
G|----------------------------------
D|----------------------------------
A|----------------------------------
E|----------------------------------
A|----------------------------------

http://www.guitartabcreator.com
Guitar Tab Creator is intended to store guitar tab created through the tool. It currently does not support in-line text editing. Any text you place in here will be lost. If you need to comment on your tab, please use the "Tab Notes" section located below.