Crazy Train

Chords

01234567891011121314151617181920212223
E
B
G
D
A
E
B
0 1 2 3 4 5 6 7 8 9 10 11 12 13 14 15 16 17 18 19 20 21 22 23
(/) Slide Up  (\) Slide Down  (h) Hammer On  (p) Pull Off  (b) Bend (r) Release (v) Vibrato

Stave 1:

E|--------------------------
B|--------------------------
G|--------------------------
D|--------------------------
A|--------4-----5-----4-----
E|--2--2-----2-----2-----2--

Stave 2:

E|--------------------------
B|--------------------------
G|--------------------------
D|--------------------------
A|--2--0-----0--2--0--------
E|--------4-----------4--0--

Stave 3:

E|-----------------------------------------------------------------
B|-----------------------------------------------------------------
G|--------6--------9--------7--------2--4--2--0--------------------
D|--------7--------6--------7--------2-----------4--2--0-----------
A|--0--0-----0--0-----0--0-----0--0-----------------------4--2--0--
E|-----------------------------------------------------------------

							http://www.guitartabcreator.com
Instruments
{"strings":[[[".",".",".",".",".",".",".","."],[".",".",".",".",".",".",".","."],[".",".",".",".",".",".",".","."],[".",".",".",".",".",".",".","."],[".",".",4,".",5,".",4,"."],[2,2,".",2,".",2,".",2]],[[".",".",".",".",".",".",".","."],[".",".",".",".",".",".",".","."],[".",".",".",".",".",".",".","."],[".",".",".",".",".",".",".","."],[2,0,".",0,2,0,".","."],[".",".",4,".",".",".",4,0]],[[".",".",".",".",".",".",".",".",".",".",".",".",".",".",".",".",".",".",".",".","."],[".",".",".",".",".",".",".",".",".",".",".",".",".",".",".",".",".",".",".",".","."],[".",".",6,".",".",9,".",".",7,".",".",2,4,2,0,".",".",".",".",".","."],[".",".",7,".",".",6,".",".",7,".",".",2,".",".",".",4,2,0,".",".","."],[0,0,".",0,0,".",0,0,".",0,0,".",".",".",".",".",".",".",4,2,0],[".",".",".",".",".",".",".",".",".",".",".",".",".",".",".",".",".",".",".",".","."]]],"numberofstrings":6,"notes":["E","B","G","D","A","E","B"],"capo":0,"stringnotes":["E4","B3","G3","D3","A2","E2"],"comments":["Stave 1:","Stave 2:","Stave 3:"],"timing":[[null,null,null,null,null,null,null,null],[null,null,null,null,null,null,null,null],["W","W","W","W","W","W","W","W","W","W","W","W","W","W","W","W","W","W","W","W","W"]],"timingvisible":false,"tabcounter":21,"stave":2,"totalstaves":3,"instrument":"6guitar","selectedtuning":"6_standard","version":"13"}

Member for

5 years 9 months
Submitted by jeppesjoberg on Tue, 2020-09-29 00:51