Sound will begin in 5 seconds

looking out for number 1 part 2 solo

01234567891011121314151617181920212223
E
B
G
D
A
E
B
0 1 2 3 4 5 6 7 8 9 10 11 12 13 14 15 16 17 18 19 20 21 22 23
Song Science #1: How Pros Use 6 Chords to Write Hit Songs
(/) Slide Up  (\) Slide Down  (h) Hammer On  (p) Pull Off  (b) Bend (r) Release (v) Vibrato

Stave 1:

E|----------------14--12-----------------------------7--8--9-----------------
B|---------9--10----------14-----------10-----10--------------10-------------
G|--9--11---------------------14\11\9------8------7---------------9\7--6-----
D|------------------------------------------------------------------------7--
A|---------------------------------------------------------------------------
E|---------------------------------------------------------------------------

Stave 2:

E|-----------------------------------------------------------------------
B|-----------------------------------------------------------------------
G|------------------------------------------11/9-------------------------
D|-----------9--12--11-------------------9--------11---------7-----------
A|--------9-------------12------------9---------------12--9-----9--7--6--
E|--9h10--------------------12--9h10-------------------------------------

Stave 3:

E|--------------------------------------------
B|---------------------------------7\5--------
G|------------------------------4-------6-----
D|-------7-----------7-------4-------------7--
A|--7h9-----9--7--6-----4h5-------------------
E|--------------------------------------------

Stave 4:

E|-----------------------------------------5--
B|--5h7--5-------------------------7\5--------
G|----------6-----6-------------7-------6-----
D|-------------7-----7-------7----------------
A|----------------------7h9-------------------
E|--------------------------------------------

http://www.guitartabcreator.com
Guitar Tab Creator is intended to store guitar tab created through the tool. It currently does not support in-line text editing. Any text you place in here will be lost. If you need to comment on your tab, please use the "Tab Notes" section located below.