Sound will begin in 5 seconds

Road to Spencer in G

01234567891011121314151617181920212223
E
B
G
D
A
E
B
0 1 2 3 4 5 6 7 8 9 10 11 12 13 14 15 16 17 18 19 20 21 22 23
Song Science #1: How Pros Use 6 Chords to Write Hit Songs
(/) Slide Up  (\) Slide Down  (h) Hammer On  (p) Pull Off  (b) Bend (r) Release (v) Vibrato

Capo Fret 4

Stave 1:

E|-----------------------|--------------------------|----------------------|-------------------------|--
B|-----------------------|-----1--3-----1-----------|----------------------|-------------------------|--
G|--------------------2--|--4--------4-----4--------|----------------------|-------------------------|--
D|-----5--5-----5--5-----|--------------------5--3--|--1/3--3--1--3--3--5--|--7h5--3--------------3--|--
A|--5--------5-----------|--------------------------|----------------------|----------5--3--5--3-----|--
E|-----------------------|--------------------------|----------------------|-------------------------|--

Stave 2:

E|-----------------------|--------------------------|-------------------------|--------------------|--
B|-----------------------|-----1--3-----1-----------|-----3p1-----------------|--------------------|--
G|--------------------2--|--4--------4-----4-----2--|--4-------4--------------|--------2-----------|--
D|-----5--5-----5--5-----|--------------------5-----|-------------5--3--------|--3--5-----3--5--5--|--
A|--5--------5-----------|--------------------------|-------------------5--3--|--------------------|--
E|-----------------------|--------------------------|-------------------------|--------------------|--

Stave 3:

E|-------------------|--1--------------------|----------------------|----------------------------|--
B|--1h3--3--3--3--5--|-----3--1--5--3--------|-------1--1-----1--3--|--5h3--1--3-----1-----------|--
G|-------------------|-----------------4-----|--4h5--------4--------|-------------4-----4-----2--|--
D|-------------------|--------------------5--|----------------------|----------------------5-----|--
A|-------------------|-----------------------|----------------------|----------------------------|--
E|-------------------|-----------------------|----------------------|----------------------------|--

Stave 4:

E|-----------------------|--2--------1--------------|-------------------------|--------------------|--
B|-----3--3--5--3--3--5--|-----3--1-----3-----------|-----3p1-----------------|--------------------|--
G|--4--------------------|-----------------4-----2--|--4-------4--------------|--------2-----------|--
D|-----------------------|--------------------5-----|-------------5--2-----2--|--3--5-----3--5--5--|--
A|-----------------------|--------------------------|-------------------5-----|--------------------|--
E|-----------------------|--------------------------|-------------------------|--------------------|--

http://www.guitartabcreator.com
Guitar Tab Creator is intended to store guitar tab created through the tool. It currently does not support in-line text editing. Any text you place in here will be lost. If you need to comment on your tab, please use the "Tab Notes" section located below.