Sound will begin in 5 seconds

Pariah

01234567891011121314151617181920212223
E
B
G
D
A
E
B
0 1 2 3 4 5 6 7 8 9 10 11 12 13 14 15 16 17 18 19 20 21 22 23
Song Science #1: How Pros Use 6 Chords to Write Hit Songs
(/) Slide Up  (\) Slide Down  (h) Hammer On  (p) Pull Off  (b) Bend (r) Release (v) Vibrato

Stave 1:

E|-----------------------
B|--------------------6--
G|--------------------5--
D|--------------------0--
A|--6--5--0--3--2--0--0--
E|--6--5--0--3--2--0--0--

Stave 2:

E|--------------------------
B|--------------------------
G|--------------------------
D|--------------------------
A|--5--------5--------8-----
E|-----6--7-----6--7-----9--

Stave 3:

E|--------------------------------------------------
B|--------------------------------------------------
G|-----5-----5-----4-----4-----2-----2-----0-----0--
D|--7-----7-----5-----5-----3-----3-----2-----2-----
A|--------------------------------------------------
E|--------------------------------------------------

Stave 4:

E|-----------8---5-----
B|--2--3-----10--6-----
G|--1--0-----10--7-----
D|--0--0--3--8---5--8--
A|--0--3--5--8---5--8--
E|--0--3--3--8---5--8--

http://www.guitartabcreator.com
Guitar Tab Creator is intended to store guitar tab created through the tool. It currently does not support in-line text editing. Any text you place in here will be lost. If you need to comment on your tab, please use the "Tab Notes" section located below.