Sound will begin in 5 seconds

jons solo

01234567891011121314151617181920212223
E
B
G
D
A
E
B
0 1 2 3 4 5 6 7 8 9 10 11 12 13 14 15 16 17 18 19 20 21 22 23
Song Science #1: How Pros Use 6 Chords to Write Hit Songs
(/) Slide Up  (\) Slide Down  (h) Hammer On  (p) Pull Off  (b) Bend (r) Release (v) Vibrato

Stave 1:

E|----------------------------------------------------------------------------------
B|----------------------------------------------13--12--------------12--13--12------
G|--4--5-----8--9-----11--12-----12--14-----12----------14--12--14--------------14--
D|----------------------------------------------------------------------------------
A|----------------------------------------------------------------------------------
E|----------------------------------------------------------------------------------

Stave 2:

E|---------------------------------------------------
B|--19b20-----19b20-----19b20r19--17--16--17--19\12--
G|---------------------------------------------------
D|---------------------------------------------------
A|---------------------------------------------------
E|---------------------------------------------------

Stave 3:

E|--------------------------------------------------------------------------
B|--------------------------------------------------------------------------
G|--10--11------------------------------------------------------8--11/12\9--
D|-------------9--10-------------------------------------7--10--------------
A|-----------------------8--9----------------------6--9---------------------
E|--------------------------------7--8\5-----5--8---------------------------

Stave 4:

E|--------------------------------------
B|--------------------------------------
G|--9--9\7--7\5--5/7--7/9--9\7--7\5--5--
D|--------------------------------------
A|--------------------------------------
E|--------------------------------------

Stave 5:

E|------------------
B|------------------
G|--4b5r4--2--------
D|------------5--4--
A|------------------
E|------------------

Stave 6:

E|------------------------------------------------
B|--0--1--3--5--7--8--10--12--13--15--17--19--20--
G|------------------------------------------------
D|------------------------------------------------
A|------------------------------------------------
E|------------------------------------------------

http://www.guitartabcreator.com
Guitar Tab Creator is intended to store guitar tab created through the tool. It currently does not support in-line text editing. Any text you place in here will be lost. If you need to comment on your tab, please use the "Tab Notes" section located below.