Sound will begin in 5 seconds

Project 1

Chords
01234567891011121314151617181920212223
E
B
G
D
A
E
B
0 1 2 3 4 5 6 7 8 9 10 11 12 13 14 15 16 17 18 19 20 21 22 23
(/) Slide Up  (\) Slide Down  (h) Hammer On  (p) Pull Off  (b) Bend (r) Release (v) Vibrato

Stave 1:

E|--10-----10--10--------10--10--10--10--10----------------------10------------------9------------------8--
B|--11-----11--11--------13--13--11--11--10------------------10-------------------9------------------8-----
G|--12-----12--12--------12--12--12--10--10--------------10--------------------9------------------8--------
D|--10-----10--10--------10--10--10--10--10----------10---------------------9------------------8-----------
A|--10-----10--10--------10--10--10--12--12------12---------------------11-----------------10--------------
E|--10-----10--10--------10--10--10--10--10--10----------------------9------------------8------------------

Stave 2:

E|--8---8---------10--
B|--8---8---------10--
G|--8---8---------10--
D|--8---8---------10--
A|--10--10--------12--
E|--8---8---------10--

http://www.guitartabcreator.com
Guitar Tab Creator is intended to store guitar tab created through the tool. It currently does not support in-line text editing. Any text you place in here will be lost. If you need to comment on your tab, please use the "Tab Notes" section located below.