Sound will begin in 5 seconds

Jack Straw

Chords
01234567891011121314151617181920212223
E
B
G
D
A
E
B
0 1 2 3 4 5 6 7 8 9 10 11 12 13 14 15 16 17 18 19 20 21 22 23
Song Science #1: How Pros Use 6 Chords to Write Hit Songs
(/) Slide Up  (\) Slide Down  (h) Hammer On  (p) Pull Off  (b) Bend (r) Release (v) Vibrato

Stave 1:

E|-----------
B|-----------
G|--9--9--9--
D|--6--7--6--
A|--7--7--7--
E|--0--0--0--

Stave 2:

E|-----5--4--5--
B|-----7--5--5--
G|--9--6--6--6--
D|--6--7--6--7--
A|--7--5--4--7--
E|--0--------5--

Stave 3:

E|-----7--5--5--
B|-----7--7--5--
G|--9--7--7--6--
D|--6--9--7--7--
A|--7--9--5--7--
E|--0--7-----5--

Stave 4:

E|------------------------------------
B|--5--4--3--2------------------------
G|--4--4--2--2------------------------
D|--6--6--4--2--4p2----------2-----2--
A|--7--7--5----------4--3/4-----4--2--
E|--0--0---------------------------0--

Stave 5:

E|--------------------2-----5--
B|--------------------2--5--5--
G|--------------------2--6--6--
D|--2--2--3--4--------4--6--7--
A|--2-----------2--3--4-----7--
E|--0-----------------2-----5--

Stave 6:

E|-----7-----5-----7--5-----
B|-----7--7--5--5--7--5--5--
G|--9--7--7--6--4--8--6--4--
D|--6--9--7--7--6--9--7--6--
A|--7--9--5--7--7--9--7--7--
E|--0--7-----5-----7--5-----

http://www.guitartabcreator.com
Guitar Tab Creator is intended to store guitar tab created through the tool. It currently does not support in-line text editing. Any text you place in here will be lost. If you need to comment on your tab, please use the "Tab Notes" section located below.