Sound will begin in 5 seconds

Salvations Melody

Chords
01234567891011121314151617181920212223
E
B
G
D
A
E
B
0 1 2 3 4 5 6 7 8 9 10 11 12 13 14 15 16 17 18 19 20 21 22 23
Song Science #1: How Pros Use 6 Chords to Write Hit Songs
(/) Slide Up  (\) Slide Down  (h) Hammer On  (p) Pull Off  (b) Bend (r) Release (v) Vibrato

Stave 1:

E|-------------------------
B|-5-5-5-5-5-5-5-5-5-5-5-5/
G|-x-x-x-x-x-x-x-x-x-x-x-x--
D|-5-5-5-5-5-5-5-5-5-5-5-5-
A|-3-3-3-3-3-3-3-3-3-3-3-3-
E|-------------------------

Stave 2:

E|------------------------------------------------------------------------------------------
B|-12b13---------------------------------------------------------------12-12---------12-----
G|-------12-12-------------------12-12-----------------12-12-----------------9-12-------12v-
D|-------------10-10-9-9-9-9-9-9-------10-10-9-9-9-7-5-------10-10-9-9------------10--------
A|------------------------------------------------------------------------------------------
E|------------------------------------------------------------------------------------------

Stave 3:

E|-
B|-
G|-
D|-
A|-
E|-

Stave 4:

E|-----------------------------------------------------------------------------------------
B|-3-------3-------3-------3-------3-------3-------3-------3-------3-------3-------3-------
G|-----0-------0-------0-------0-------0-------0-------0-------0-------0-------0-------0---
D|---5---5---5---5---5---5---5---5---5---5---5---5---5---5---5---5---5---5---5---5---5---5-
A|-----------------------------------------------------------------------------------------
E|-----------------------------------------------------------------------------------------

Stave 5:

E|-----------------------------------------
B|-3-------5---5---7---7---8---8---10---10-
G|-----0-----0---0---0---0---0---0----0----
D|---5---5---------------------------------
A|-----------------------------------------
E|-----------------------------------------

Stave 6:

E|----------------------------------------------------------
B|-12----12-------12----12----13----12----12-------13-12-10-
G|----------------------------------------------------------
D|----12-------12----12----------------12-------12----------
A|----------------------------------------------------------
E|----------------------------------------------------------

Stave 7:

E|-7-------7-------7-------7-------7-------7-------7-------8-------7-------7-------7-------7-------
B|-----8-------8-------8-------8-------8-------8-------8-------8-------8-------8-------8-------8---
G|---7---7---7---7---7---7---7---7---7---7---7---7---7---7---7---7---7---7---7---7---7---7---7---7-
D|-------------------------------------------------------------------------------------------------
A|-------------------------------------------------------------------------------------------------
E|-------------------------------------------------------------------------------------------------

Stave 8:

E|---------------------------------------------------------------------------------------------
B|-8-8-8-8-10-10-10-10-12-12-12-12-12----12----12-------12----12----13-12----12-------13-12-10-
G|---------------------------------------------------------------------------------------------
D|------------------------------------12----12-------12----12-------------12-------12----------
A|---------------------------------------------------------------------------------------------
E|---------------------------------------------------------------------------------------------

Stave 9:

E|----------------------------------------------------------------
B|----12----12-------12----12-------13----12----12-------13-12-10-
G|----------------------------------------------------------------
D|-12----12-------12----12-------12----12----12-------12----------
A|----------------------------------------------------------------
E|----------------------------------------------------------------

http://www.guitartabcreator.com
Guitar Tab Creator is intended to store guitar tab created through the tool. It currently does not support in-line text editing. Any text you place in here will be lost. If you need to comment on your tab, please use the "Tab Notes" section located below.