Sound will begin in 5 seconds

Give Me Faith- For All Seasons

Chords
01234567891011121314151617181920212223
E
B
G
D
A
E
B
0 1 2 3 4 5 6 7 8 9 10 11 12 13 14 15 16 17 18 19 20 21 22 23
Song Science #1: How Pros Use 6 Chords to Write Hit Songs
(/) Slide Up  (\) Slide Down  (h) Hammer On  (p) Pull Off  (b) Bend (r) Release (v) Vibrato

Capo Fret 2

Stave 1:

E|------------------------------
B|------------------------13-12\
G|-5-7-7----5-7-7-9-12----12-12-
D|------------------------------
A|-3-5-5----3-5-5/7/10----------
E|------------------------------

Stave 2:

E|-5-7-8-12-------------------5-7-8-12----------------
B|----------12----12-12-12-------------12-------------
G|-5-7-9-12-------------------5-7-9-12-------12-12-12-
D|----------12-------------------------12-------------
A|----------------------------------------------------
E|----------------------------------------------------

Stave 3:

E|-----8-----8-----8-----7-----7-----7-----7-----5-----5-----5-----5-----7-----7-----7-----7-
B|---8-----8-----8-----8-----8-----8-----8-----8-----8-----8-----8-----8-----8-----8-----8---
G|-0-----0-----0-----0-----0-----0-----0-----0-----0-----0-----0-----0-----0-----0-----0-----
D|-------------------------------------------------------------------------------------------
A|-------------------------------------------------------------------------------------------
E|-------------------------------------------------------------------------------------------

Stave 4:

E|-----8-----8-----8-----12-----10-----10-----10-----7-----8-----8-----8-----8-----8-----8-----8-
B|---8-----8-----8-----8------8------8------8------8-----8-----8-----8-----8-----8-----8-----8---
G|-0-----0-----0-----0------0------0------0------0-----0-----0-----0-----0-----0-----0-----0-----
D|-----------------------------------------------------------------------------------------------
A|-----------------------------------------------------------------------------------------------
E|-----------------------------------------------------------------------------------------------

Stave 5:

E|-----------------------------------------------------------------
B|-----1-------1-------0-------1-------1-------1-------1-------0---
G|---0---0---0---0-------0-------0---0---0---0---0-------0-------0-
D|-3-----------------0-------2-----3-----------------2-------0-----
A|---------3---------------0---------------3-------0---------------
E|-----------------3---------------------------------------3-------

Stave 6:

E|-----1-------------------x-x-x-x-
B|-------3-----1-------1---0-0-0-0-
G|-----------0---0---0---0-0-0-0-0-
D|---2-----3---------------0-0-0-0-
A|-0---------------3-------x-x-x-x-
E|-------------------------3-3-3-3-

Stave 7:

E|------------------------------------------------------------------------------------------------------
B|------------------------------------------------------------------------------------------------------
G|-5-5-5-5-5-5-5-5-9-9-9-9-7-7-7-x-4-4-4-4-4-4-4-5-5-5-4-------5-5-5-5-5-5-5-5-9-9-9-9-7-7-7-x-12-12-12-
D|-------------------------------x-----------------------5-5-5-------------------------------x----------
A|-3-3-3-3-3-3-3-3-7-7-7-7-5-5-5-x-3-3-3-3-3-3-3-3-3-3-3-3-3-3-3-3-3-3-3-3-3-3-7-7-7-7-5-5-5-x-10-10-10-
E|------------------------------------------------------------------------------------------------------

Stave 8:

E|----------------------------------
B|-------------12-12-12-12-13-13-13-
G|-12-12-12-12-12-12-12-12-12-12-12-
D|----------------------------------
A|-10-10-10-10-10-10-10-10-10-10-10-
E|----------------------------------

Stave 9:

E|---------------------8-8-7-7---------------------------------------------------
B|-8-8-8-8-8-8-8-8-8-8---------8-8-----------------------------------------------
G|-------------------------------------------------------------------------------
D|---------------------------------10-10-10-10-10-10-10-10-10-10-10-10-9-9-10-10-
A|-------------------------------------------------------------------------------
E|-------------------------------------------------------------------------------

Stave 10:

E|---------------------8-8-7-7-------------------------------------------
B|-8-8-8-8-8-8-8-8-8-8---------8-8---------------------------------------
G|-----------------------------------------------------------------------
D|---------------------------------10-10-10-10-10-10-10/12-12-12-9-9-9-9-
A|-----------------------------------------------------------------------
E|-----------------------------------------------------------------------

Stave 11:

E|---------------------8-8-7-7-8-8-10-10-10-12-12-12-15-15-15-7-7-7-7-
B|-8-8-8-8-8-8-8-8-8-8------------------------------------------------
G|--------------------------------------------------------------------
D|--------------------------------------------------------------------
A|--------------------------------------------------------------------
E|--------------------------------------------------------------------

http://www.guitartabcreator.com
Guitar Tab Creator is intended to store guitar tab created through the tool. It currently does not support in-line text editing. Any text you place in here will be lost. If you need to comment on your tab, please use the "Tab Notes" section located below.