Sound will begin in 5 seconds

Who Are You

01234567891011121314151617181920212223
E
B
G
D
A
E
B
0 1 2 3 4 5 6 7 8 9 10 11 12 13 14 15 16 17 18 19 20 21 22 23
Song Science #1: How Pros Use 6 Chords to Write Hit Songs
(/) Slide Up  (\) Slide Down  (h) Hammer On  (p) Pull Off  (b) Bend (r) Release (v) Vibrato

Stave 1:

G|---------------------------------
D|---------------------------------
A|-------------------------3-3-3-5-
E|-3-3-2-2-1-1-0-0-3-3-2-2---------

Stave 2:

G|---------------------------------
D|---------------------------------
A|-----2-3-5-3-2-------1-2-3-1-----
E|-3-5-----------5-1-3---------3-1-

Stave 3:

G|---------------------------------
D|-------------------2-4-5---------
A|-----2-3-5-3-2-5-3-------5-3-2---
E|-3-5---------------------------5-

Stave 4:

G|---------------------------------
D|---------------------------------
A|-----2-3-5-3-2-5-3-------3-------
E|-3-5-----------------------------

Stave 5:

G|------------------------------------------------------------------------------
D|--------------------------------------------------------------------------5-7-
A|-----------5-5-----------------3-------------------5-5----3-3-3-3-3-3-5-7-----
E|-3-3-----------------1-1------------1----3-3----------------------------------

Stave 6:

G|---------------------------------------
D|---------------------------------------
A|-------------------------1-0-1-3-1-0---
E|-3-3-3-6-3-3-3-5-1-1-1-1-------------1-

Stave 7:

G|------------------------------------------
D|--------------------------------------5-7-
A|-----5-5-----3-------5-5-3-3-3----5-7-----
E|-3-3-----1-1---1-3-3----------------------

Stave 8:

G|----------------------------------
D|----------------------------------
A|-----5-5-----3-3-----5-5-----3----
E|-3-3-----1-1-----3-3-----1-1------

http://www.guitartabcreator.com
Guitar Tab Creator is intended to store guitar tab created through the tool. It currently does not support in-line text editing. Any text you place in here will be lost. If you need to comment on your tab, please use the "Tab Notes" section located below.