Sound will begin in 5 seconds

look at me

01234567891011121314151617181920212223
E
B
G
D
A
E
B
0 1 2 3 4 5 6 7 8 9 10 11 12 13 14 15 16 17 18 19 20 21 22 23
Song Science #1: How Pros Use 6 Chords to Write Hit Songs
(/) Slide Up  (\) Slide Down  (h) Hammer On  (p) Pull Off  (b) Bend (r) Release (v) Vibrato

Stave 1:

G|--------------------------------------------------------------------------------
D|--------------------------------------------------------------------------------
A|-7-7----7-7-7----10-10-10----12-12-12-10-10-------------------------------------
E|--------------------------------------------10-10----10-10-10----3-3-3----2-2-2-

Stave 2:

G|-------------------------------------------------------------------------------------------
D|----------------------------------------------------------------12-12----------------------
A|----------7-7-7----10-10-10----12-12-12-10-10----------------------------------------------
E|-0-0-0----------------------------------------10-10----10-10-10-------10----10----10----10-

Stave 3:

G|--------------------------------------
D|--------------------------------------
A|-7-7-----------------------------10-9-
E|-----8-8-10-10-3-2-0-0-8-8-10-10------

Stave 4:

G|---------------------------------------------------------
D|---------------------------------------------------------
A|-7-7-7-7---------10-10-10-10-----------------------------
E|---------8-8-8-8-------------10-10-10-10-7-7-7-7-7-7-7-7-

Stave 5:

G|------------------------------------------------------------------------------------------
D|--------------9-9----------10-10----10-------------10-10-11-11----------------------------
A|-7-7----7-7-7--------------------------10-10----10-------------------------12-12-10-10----
E|------------------8-8----8-------------------------------------10-10----10----------------

Stave 6:

G|-------------------
D|-------------------
A|-------------10-10-
E|-3-3-5-5-8-8-------

Stave 7:

G|------------------------------
D|----------------5-5-3-5-------
A|---------3-3------------4-3---
E|-3-3-5-5--------------------6-

http://www.guitartabcreator.com
Guitar Tab Creator is intended to store guitar tab created through the tool. It currently does not support in-line text editing. Any text you place in here will be lost. If you need to comment on your tab, please use the "Tab Notes" section located below.