Sound will begin in 5 seconds

Lost and Forgotten Bass

01234567891011121314151617181920212223
E
B
G
D
A
E
B
0 1 2 3 4 5 6 7 8 9 10 11 12 13 14 15 16 17 18 19 20 21 22 23
Song Science #1: How Pros Use 6 Chords to Write Hit Songs
(/) Slide Up  (\) Slide Down  (h) Hammer On  (p) Pull Off  (b) Bend (r) Release (v) Vibrato

Stave 1:

G|--------------------------------------------------------------------------------------------
D|-----------12-----------------------------------------------12------------------------------
A|----------------------12---------15------------------------------------12-------------------
E|--0--0--0------13--0------10--0------12--0--12h13--0--0--0------13--0------10--0--12h13--0--

Stave 2:

G|---------
D|---------
A|--12h15--
E|---------

Stave 3:

G|--------------------------------------------------------------------------------------------
D|--------------------10--------------------10--------------------------------------------10--
A|--------------------------------------------------------------------------------------------
E|--0-----0--0--0--0------0--0--0-----0--0------0--0-----0--0--0--0--0--0-----0--0--0--0------

Stave 4:

G|---------------------------------------------
D|-----------------------------10--10--10--10--
A|---------------------------------------------
E|--0--0--0--0-----0-----0---------------------

Stave 5:

G|----------------------
D|----------------------
A|----------------------
E|--0/12--12\7/8--8--8--

Stave 6:

G|-------------------------
D|-------------------------
A|-------------------------
E|--0/5--5--5--0--1--1--1--

Stave 7:

G|-----------------------------------------------------------------------------------------------
D|-----------------------------------------------------------------------------------------------
A|--------------------2-----------------------------2-----3--------------------2--------3--------
E|--0-----0--0--0--0-----1--0-----0-----0--0--0--0-----1-----0-----0--0--0--0-----1--0-----1--0--

Stave 8:

G|---------------------------------------------------------------------------------------------
D|---------------------------------------------------------------------------------------------
A|--3/5-----------------------------2-----------------------------3-----3/5--------------------
E|-------0--3--0--------0--0--0--0-----1--0-----0-----0--0--0--0-----1-------0-----0--0--0--0--

Stave 9:

G|-------------------------------------------------------------------------------------------
D|-------------------------------------------------------------------------------------------
A|--2--------3--------3/5--------------------------2--------3--------3-----------2--------2--
E|-----1--0-----1--0-------0--3--0-----0--0--0--0-----0--0-----0--0--------0--0-----0--0-----

Stave 10:

G|-----------------------------------------------------------------------------------------
D|-----------------------------------------------------------------------------------------
A|--------------------2--------3--------5--------2--------2--------------------2--------3--
E|--0-----0--0--0--0-----0--0-----0--0-----0--0-----0--0-----0-----0--0--0--0-----0--0-----

Stave 11:

G|--------------------------------------------------------------------------
D|--------------------------------------------------------------------------
A|--------3-----------2--------2--------------------2-----------------2--3--
E|--0--0--------0--0-----0--0-----0-----0--0--0--0-----12\1--0--1--3--------

Stave 12:

G|----------------------------------------------------------
D|-----------------------------12---------------------------
A|----------------------------------------15----------------
E|--0--0--0--0-----0--0--0--0------13--0------12--0--12h13--

Stave 13:

G|---------------------------------------------------------
D|-----------------------------12--------------------------
A|--------------------------------------------------12h15--
E|--0--0--0--0-----0--0--0--0------13--0--12h13--0---------

http://www.guitartabcreator.com
Guitar Tab Creator is intended to store guitar tab created through the tool. It currently does not support in-line text editing. Any text you place in here will be lost. If you need to comment on your tab, please use the "Tab Notes" section located below.