Sunshine of Your Love

Chords

01234567891011121314151617181920212223
E
B
G
D
A
E
B
0 1 2 3 4 5 6 7 8 9 10 11 12 13 14 15 16 17 18 19 20 21 22 23
(/) Slide Up  (\) Slide Down  (h) Hammer On  (p) Pull Off  (b) Bend (r) Release (v) Vibrato

Stave 1:

E|-------------------------------------------
B|-------------------------------------------
G|-------------------------------------------
D|--12--12--10--12---------------------------
A|------------------12--11--10-------b8------
E|------------------------------10-------10--

Stave 2:

E|-------------------------------------------
B|-------------------------------------------
G|--12--12--10--12---------------------------
D|------------------12--11--10-------b8------
A|------------------------------10-------10--
E|-------------------------------------------

Stave 3:

E|-----------------------------------------------------------------------------------------
B|-----------------------------------------------------------------------------------------
G|-----------------5-----------------------------5--------------------------------5--------
D|--7--7--7--------5-----5--------7--7--7--------5-----5--------7--7--7-----------5-----5--
A|--7--7--7--------3-----5--------7--7--7--------3-----5--------7--7--7-----------3-----5--
E|--5--5--5--------------3--------5--5--5--------------3--------5--5--5-----------------3--

Stave 4:

E|--------------------------------------
B|--------------------------------------
G|--------------------------------------
D|--7-----7-----7-----7-----7--7--7--7--
A|--7-----7-----7-----7-----7--7--7--7--
E|--5-----5-----5-----5-----5--5--5--5--

							http://www.guitartabcreator.com
Instruments
{"strings":[[[".",".",".",".",".",".",".",".",".",".",".","."],[".",".",".",".",".",".",".",".",".",".",".","."],[".",".",".",".",".",".",".",".",".",".",".","."],[12,12,10,12,".",".",".",".",".",".",".","."],[".",".",".",".",12,11,10,".",".","b",8,"."],[".",".",".",".",".",".",".",10,".",".",".",10]],[[".",".",".",".",".",".",".",".",".",".",".","."],[".",".",".",".",".",".",".",".",".",".",".","."],[12,12,10,12,".",".",".",".",".",".",".","."],[".",".",".",".",12,11,10,".",".","b",8,"."],[".",".",".",".",".",".",".",10,".",".",".",10],[".",".",".",".",".",".",".",".",".",".",".","."]],[[".",".",".","_","_","_","_","_","_","_",".",".",".","_","_",".","_",".","_","_",".",".",".","_","_","_",".","_","."],[".",".",".","_","_","_","_","_","_","_",".",".",".","_","_",".","_",".","_","_",".",".",".","_","_","_",".","_","."],[".",".",".","_","_",5,"_","_","_","_",".",".",".","_","_",5,"_",".","_","_",".",".",".","_","_","_",5,"_","."],[7,7,7,"_","_",5,"_",5,"_","_",7,7,7,"_","_",5,"_",5,"_","_",7,7,7,"_","_","_",5,"_",5],[7,7,7,"_","_",3,"_",5,"_","_",7,7,7,"_","_",3,"_",5,"_","_",7,7,7,"_","_","_",3,"_",5],[5,5,5,"_","_","_","_",3,"_","_",5,5,5,"_","_",".","_",3,"_","_",5,5,5,"_","_","_",".","_",3]],[[".","_",".","_",".","_",".","_",".",".",".","."],[".","_",".","_",".","_",".","_",".",".",".","."],[".","_",".","_",".","_",".","_",".",".",".","."],[7,"_",7,"_",7,"_",7,"_",7,7,7,7],[7,"_",7,"_",7,"_",7,"_",7,7,7,7],[5,"_",5,"_",5,"_",5,"_",5,5,5,5]]],"numberofstrings":6,"notes":["E","B","G","D","A","E","B"],"capo":0,"stringnotes":["E4","B3","G3","D3","A2","E2"],"comments":["Stave 1:","Stave 2:","Stave 3:","Stave 4:"],"timing":[["W","W","W","W","W","W","W","W","W","W"],["W","W","W","W","W","W","W","W","W","W","W","W"],["W","W","W",null,"W","W","W","W","W","W","W","W","W",null,"W","W","W","W","W","W","W","W","W",null,null,"W","W","W","W","W"],["W","W","W","W","W",null,"W",null,"W","W","W","W"]],"timingvisible":false,"tabcounter":11,"stave":3,"totalstaves":4,"instrument":"6guitar","selectedtuning":"6_standard","version":"13"}

Member for

4 months 2 weeks
Submitted by jeddfraser on Tue, 2020-12-01 17:16