Purple Haze (for beginner)

01234567891011121314151617181920212223
E
B
G
D
A
E
B
0 1 2 3 4 5 6 7 8 9 10 11 12 13 14 15 16 17 18 19 20 21 22 23
(/) Slide Up  (\) Slide Down  (h) Hammer On  (p) Pull Off  (b) Bend (r) Release (v) Vibrato

Stave 1:

E|--------------------------
B|--------------------------
G|--------------------------
D|-----8-----8-----8-----8--
A|--------------------------
E|--6-----6-----6-----6-----

Stave 2:

E|------------------------------------------------------------------
B|--------8----------------------------------8----------------------
G|-----7----------------------------------7-------------------------
D|--9--------7-----5-------------------9--------7-----5-------------
A|--------------------5-----5h7--------------------------5-----5h7--
E|-----------------------0----------------------------------0-------

Stave 3:

E|-------------------------------------------------------------------------
B|-------------------------------------------------------------------------
G|----------------------------------------------------------------7--9--9--
D|--------5--7--7b---5-----5--------------------5--7--9--7-----9-----------
A|--5--7----------------------5-----------5--7-----------------------------
E|-------------------------------0--3--------------------------------------

							http://www.guitartabcreator.com
Chords

Instruments
{"strings":[[[".",".",".",".",".",".",".","."],[".",".",".",".",".",".",".","."],[".",".",".",".",".",".",".","."],[".",8,".",8,".",8,".",8],[".",".",".",".",".",".",".","."],[6,".",6,".",6,".",6,"."]],[[".",".",".",".","_",".",".",".",".",".",".","_","_",".",".",".",".","_",".",".",".",".",".","."],[".",".",8,".","_",".",".",".",".",".",".","_","_",".",".",8,".","_",".",".",".",".",".","."],[".",7,".",".","_",".",".",".",".",".",".","_","_",".",7,".",".","_",".",".",".",".",".","."],[9,".",".",7,"_",5,".",".",".",".",".","_","_",9,".",".",7,"_",5,".",".",".",".","."],[".",".",".",".","_",".",5,".",5,"h",7,"_","_",".",".",".",".","_",".",5,".",5,"h",7],[".",".",".",".","_",".",".",0,".",".",".","_","_",".",".",".",".","_",".",".",0,".",".","."]],[[".",".",".",".",".",".","_",".","_",".",".",".",".","_",".",".",".",".",".",".","_",".",".",".","."],[".",".",".",".",".",".","_",".","_",".",".",".",".","_",".",".",".",".",".",".","_",".",".",".","."],[".",".",".",".",".",".","_",".","_",".",".",".",".","_",".",".",".",".",".",".","_",".",7,9,9],[".",".",5,7,7,"b","_",5,"_",5,".",".",".","_",".",".",5,7,9,7,"_",9,".",".","."],[5,7,".",".",".",".","_",".","_",".",5,".",".","_",5,7,".",".",".",".","_",".",".",".","."],[".",".",".",".",".",".","_",".","_",".",".",0,3,"_",".",".",".",".",".",".","_",".",".",".","."]]],"numberofstrings":6,"notes":["E","B","G","D","A","E","B"],"capo":0,"stringnotes":["E4","B3","G3","D3","A2","E2"],"comments":["Stave 1:","Stave 2:","Stave 3:"],"timing":[["W","W","W","W","W","W","W","W"],["W","W","W","W",null,"W","W","W","W",null,"W",null,null,"W","W","W","W",null,"W","W","W","W",null,"W"],["W","W","W","W","W",null,"W","W","W","W","W","W","W",null,"W","W","W","W","W","W",null,"W","W","W","W"]],"timingvisible":false,"tabcounter":25,"stave":2,"totalstaves":3,"instrument":"6guitar","selectedtuning":"6_standard","version":"13"}

Member for

6 months 1 week
Submitted by jeddfraser on Tue, 2021-01-26 18:35