Power chord exercises

Chords

01234567891011121314151617181920212223
E
B
G
D
A
E
B
0 1 2 3 4 5 6 7 8 9 10 11 12 13 14 15 16 17 18 19 20 21 22 23
(/) Slide Up  (\) Slide Down  (h) Hammer On  (p) Pull Off  (b) Bend (r) Release (v) Vibrato

Stave 1:

E|-----------------------------------------
B|-----------------------------------------
G|--------------7--7-----9--9--9-----7--7--
D|--7--7--7-----7--7-----9--9--9-----7--7--
A|--7--7--7-----5--5-----7--7--7-----5--5--
E|--5--5--5--------------------------------

Stave 2:

E|--------------------------------------------
B|--------------------------------------------
G|--9--9--9-----------------------5-----7--7--
D|--9--9--9-----5--5-----7--7-----5-----7--7--
A|--7--7--7-----5--5-----7--7-----3-----5--5--
E|--------------3--3-----5--5-----------------

Stave 3:

E|---------------------------------------------
B|---------------------------------------------
G|--5--5--5--5--5--5--5--5--5--5--5-----10--9--
D|--5--5--5--5--5--5--5--5--5--5--5-----10--9--
A|--3--3--3--3--3--3--3--3--3--3--3-----8---7--
E|---------------------------------------------

							http://www.guitartabcreator.com
Instruments
{"strings":[[[".",".",".","_",".",".","_",".",".",".","_",".","."],[".",".",".","_",".",".","_",".",".",".","_",".","."],[".",".",".","_",7,7,"_",9,9,9,"_",7,7],[7,7,7,"_",7,7,"_",9,9,9,"_",7,7],[7,7,7,"_",5,5,"_",7,7,7,"_",5,5],[5,5,5,"_",".",".","_",".",".",".","_",".","."]],[[".",".",".","_",".",".","_",".",".","_",".","_",".","."],[".",".",".","_",".",".","_",".",".","_",".","_",".","."],[9,9,9,"_",".",".","_",".",".","_",5,"_",7,7],[9,9,9,"_",5,5,"_",7,7,"_",5,"_",7,7],[7,7,7,"_",5,5,"_",7,7,"_",3,"_",5,5],[".",".",".","_",3,3,"_",5,5,"_",".","_",".","."]],[[".",".",".",".",".",".",".",".",".",".",".","_",".","."],[".",".",".",".",".",".",".",".",".",".",".","_",".","."],[5,5,5,5,5,5,5,5,5,5,5,"_",10,9],[5,5,5,5,5,5,5,5,5,5,5,"_",10,9],[3,3,3,3,3,3,3,3,3,3,3,"_",8,7],[".",".",".",".",".",".",".",".",".",".",".","_",".","."]]],"numberofstrings":6,"notes":["E","B","G","D","A","E","B"],"capo":0,"stringnotes":["E4","B3","G3","D3","A2","E2"],"comments":["Stave 1:","Stave 2:","Stave 3:","Stave 4:"],"timing":[["W","W","W",null,"W","W","W","W","W","W","W","W","W"],["W","W","W",null,"W","W",null,"W","W","W","W",null,"W","W"],["W","W","W","W","W","W","W","W","W","W","W","W","W","W"],["W","W","W","W","W","W","W","W","W",null,"W","W","W","W"]],"timingvisible":false,"tabcounter":0,"totalstaves":3,"instrument":"6guitar","selectedtuning":"6_standard","version":"13"}

Member for

4 months 2 weeks
Submitted by jeddfraser on Tue, 2020-12-01 18:00