Little Things

Chords

01234567891011121314151617181920212223
E
B
G
D
A
E
B
0 1 2 3 4 5 6 7 8 9 10 11 12 13 14 15 16 17 18 19 20 21 22 23
(/) Slide Up  (\) Slide Down  (h) Hammer On  (p) Pull Off  (b) Bend (r) Release (v) Vibrato

Capo Fret 5

Stave 1:

E|--------3--------0-----------3--------0-----------2--------0-----------2--------0-----
B|--------------------3--------------------3--------------------3--------------------3--
G|-----2--------2-----------2--------2-----------0--------0-----------0--------0--------
D|--0--------0-----------0--------0-----------------------------------------------------
A|--------------------------------------------------------------------------------------
E|--------------------------------------------3--------3-----------3--------3-----------

Stave 2:

E|--------0--------0-----------0--------0-----------0-----------------
B|--------------------3--------------------3-----------3--------2--3--
G|-----2--------2-----------2--------2-----------0-----------2--------
D|--------------------------------------------------------------------
A|--2--------2-----------0--------0-----------------------0-----------
E|--------------------------------------------3-----------------------

Stave 3:

E|--------0--------0-----------0--------0-----------0--------0-----------------------------
B|--------------------3--------------------3--------------------3--------2--3--2-----2--3--
G|-----0--------0-----------0--------0-----------2--------2-----------2-----------2--------
D|-----------------------------------------------------------------------------------------
A|--------------------------------------------2--------2-----------0-----------------------
E|--0--------0-----------3--------3--------------------------------------------------------

Stave 4:

E|--------0--------0-----------0--------0-----------0--------0-----------------------------
B|--------------------3--------------------3--------------------3--------2--3--2-----2--3--
G|-----0--------0-----------0--------0-----------2--------2-----------2-----------2--------
D|-----------------------------------------------------------------------------------------
A|--------------------------------------------2--------2-----------0-----------------------
E|--0--------0-----------3--------3--------------------------------------------------------

Stave 5:

E|-----------------------------------------------------------------------
B|--------3--------3--------3--------------------------------------------
G|-----0--------0--------0--------------2--------2-----------2--------2--
D|-----------------------------------0--------0-----------0--------0-----
A|--------------------------------0--------0-----------0--------0--------
E|--3--------3--------3--------------------------------------------------

							http://www.guitartabcreator.com
genre
Instruments
{"strings":[[[".",".",3,".",".",0,".",".",".",3,".",".",0,".",".",".",2,".",".",0,".",".",".",2,".",".",0,"."],[".",".",".",".",".",".",3,".",".",".",".",".",".",3,".",".",".",".",".",".",3,".",".",".",".",".",".",3],[".",2,".",".",2,".",".",".",2,".",".",2,".",".",".",0,".",".",0,".",".",".",0,".",".",0,".","."],[0,".",".",0,".",".",".",0,".",".",0,".",".",".",".",".",".",".",".",".",".",".",".",".",".",".",".","."],[".",".",".",".",".",".",".",".",".",".",".",".",".",".",".",".",".",".",".",".",".",".",".",".",".",".",".","."],[".",".",".",".",".",".",".",".",".",".",".",".",".",".",3,".",".",3,".",".",".",3,".",".",3,".",".","."]],[[".",".",0,".",".",0,".",".",".",0,".",".",0,".",".",".",0,".",".",".",".","."],[".",".",".",".",".",".",3,".",".",".",".",".",".",3,".",".",".",3,".",".",2,3],[".",2,".",".",2,".",".",".",2,".",".",2,".",".",".",0,".",".",".",2,".","."],[".",".",".",".",".",".",".",".",".",".",".",".",".",".",".",".",".",".",".",".",".","."],[2,".",".",2,".",".",".",0,".",".",0,".",".",".",".",".",".",".",0,".",".","."],[".",".",".",".",".",".",".",".",".",".",".",".",".",".",3,".",".",".",".",".",".","."]],[[".",".",0,".",".",0,".",".",".",0,".",".",0,".",".",".",0,".",".",0,".",".",".",".",".",".",".",".","."],[".",".",".",".",".",".",3,".",".",".",".",".",".",3,".",".",".",".",".",".",3,".",".",2,3,2,".",2,3],[".",0,".",".",0,".",".",".",0,".",".",0,".",".",".",2,".",".",2,".",".",".",2,".",".",".",2,".","."],[".",".",".",".",".",".",".",".",".",".",".",".",".",".",".",".",".",".",".",".",".",".",".",".",".",".",".",".","."],[".",".",".",".",".",".",".",".",".",".",".",".",".",".",2,".",".",2,".",".",".",0,".",".",".",".",".",".","."],[0,".",".",0,".",".",".",3,".",".",3,".",".",".",".",".",".",".",".",".",".",".",".",".",".",".",".",".","."]],[[".",".",0,".",".",0,".",".",".",0,".",".",0,".",".",".",0,".",".",0,".",".",".",".",".",".",".",".","."],[".",".",".",".",".",".",3,".",".",".",".",".",".",3,".",".",".",".",".",".",3,".",".",2,3,2,".",2,3],[".",0,".",".",0,".",".",".",0,".",".",0,".",".",".",2,".",".",2,".",".",".",2,".",".",".",2,".","."],[".",".",".",".",".",".",".",".",".",".",".",".",".",".",".",".",".",".",".",".",".",".",".",".",".",".",".",".","."],[".",".",".",".",".",".",".",".",".",".",".",".",".",".",2,".",".",2,".",".",".",0,".",".",".",".",".",".","."],[0,".",".",0,".",".",".",3,".",".",3,".",".",".",".",".",".",".",".",".",".",".",".",".",".",".",".",".","."]],[[".",".",".",".",".",".",".",".",".","_",".",".",".",".",".",".","_",".",".",".",".",".","."],[".",".",3,".",".",3,".",".",3,"_",".",".",".",".",".",".","_",".",".",".",".",".","."],[".",0,".",".",0,".",".",0,".","_",".",".",2,".",".",2,"_",".",".",2,".",".",2],[".",".",".",".",".",".",".",".",".","_",".",0,".",".",0,".","_",".",0,".",".",0,"."],[".",".",".",".",".",".",".",".",".","_",0,".",".",0,".",".","_",0,".",".",0,".","."],[3,".",".",3,".",".",3,".",".","_",".",".",".",".",".",".","_",".",".",".",".",".","."]]],"numberofstrings":6,"notes":["E","B","G","D","A","E","B"],"capo":"5","stringnotes":["E4","B3","G3","D3","A2","E2"],"comments":["Stave 1:","Stave 2:","Stave 3:","Stave 4:","Stave 5:"],"timing":[[null,null,null,null,null,null,null,null,null,null,null,null,null,null,null,null,null,null,null,null,null,null,null,null,null,null,null,null],[null,null,null,null,null,null,null,null,null,null,null,null,null,null,null,null,null,null,null,null,null,null],["W","W","W","W","W","W","W","W","W","W","W","W","W","W","W","W","W","W","W","W","W","W","W","W","W","W","W","W","W"],["W","W","W","W","W","W","W","W","W","W","W","W","W","W","W","W","W","W","W","W","W","W","W","W","W","W","W","W","W","W"],["W","W","W","W","W","W","W","W","W",null,"W","W","W","W","W","W",null,"W","W","W","W","W","W"]],"timingvisible":false,"tabcounter":23,"stave":4,"totalstaves":5,"instrument":"6guitar","selectedtuning":"6_standard","version":"13"}

Member for

3 months
Submitted by jeddfraser on Tue, 2020-09-22 17:47