Day Tripper

01234567891011121314151617181920212223
E
B
G
D
A
E
B
0 1 2 3 4 5 6 7 8 9 10 11 12 13 14 15 16 17 18 19 20 21 22 23
(/) Slide Up  (\) Slide Down  (h) Hammer On  (p) Pull Off  (b) Bend (r) Release (v) Vibrato

Stave 1:

E|-----------------------------------------
B|-----------------------------------------
G|-----------------------------------------
D|-----------------2--0--------4-----0--2--
A|--------------2-----------2-----2--------
E|--0-----3--4-----------------------------

Stave 2:

E|-----------------------------------------
B|-----------------------------------------
G|-----------------2--0--------4-----0--2--
D|--------------2-----------2-----2--------
A|--0-----3--4-----------------------------
E|-----------------------------------------

Stave 3:

E|--------------
B|--------------
G|--------------
D|--------------
A|--4--4--4--4--
E|--2--2--2--2--

Stave 4:

E|--------------------------------------------------
B|--------------------------------------------------
G|--------------------------------------------------
D|--------------------------------------------------
A|--7--7--7--7--7--7--7--7--6--6--6--6--6--6--6--6--
E|--5--5--5--5--5--5--5--5--4--4--4--4--4--4--4--4--

Stave 5:

E|----------------------------------------------------------
B|----------------------------------------------------------
G|----------------------------------------------------------
D|----------------------------------------------------------
A|--11--11--11--11--11--11--11--11--9--9--9--9--9--9--9--9--
E|--9---9---9---9---9---9---9---9---7--7--7--7--7--7--7--7--

							http://www.guitartabcreator.com
Chords

Instruments
{"strings":[[[".","_",".",".",".",".",".","_",".",".",".",".","."],[".","_",".",".",".",".",".","_",".",".",".",".","."],[".","_",".",".",".",".",".","_",".",".",".",".","."],[".","_",".",".",".",2,0,"_",".",4,".",0,2],[".","_",".",".",2,".",".","_",2,".",2,".","."],[0,"_",3,4,".",".",".","_",".",".",".",".","."]],[[".","_",".",".",".",".",".","_",".",".",".",".","."],[".","_",".",".",".",".",".","_",".",".",".",".","."],[".","_",".",".",".",2,0,"_",".",4,".",0,2],[".","_",".",".",2,".",".","_",2,".",2,".","."],[0,"_",3,4,".",".",".","_",".",".",".",".","."],[".","_",".",".",".",".",".","_",".",".",".",".","."]],[[".",".",".","."],[".",".",".","."],[".",".",".","."],[".",".",".","."],[4,4,4,4],[2,2,2,2]],[[".",".",".",".",".",".",".",".",".",".",".",".",".",".",".","."],[".",".",".",".",".",".",".",".",".",".",".",".",".",".",".","."],[".",".",".",".",".",".",".",".",".",".",".",".",".",".",".","."],[".",".",".",".",".",".",".",".",".",".",".",".",".",".",".","."],[7,7,7,7,7,7,7,7,6,6,6,6,6,6,6,6],[5,5,5,5,5,5,5,5,4,4,4,4,4,4,4,4]],[[".",".",".",".",".",".",".",".",".",".",".",".",".",".",".","."],[".",".",".",".",".",".",".",".",".",".",".",".",".",".",".","."],[".",".",".",".",".",".",".",".",".",".",".",".",".",".",".","."],[".",".",".",".",".",".",".",".",".",".",".",".",".",".",".","."],[11,11,11,11,11,11,11,11,9,9,9,9,9,9,9,9],[9,9,9,9,9,9,9,9,7,7,7,7,7,7,7,7]]],"numberofstrings":6,"notes":["E","B","G","D","A","E","B"],"capo":0,"stringnotes":["E4","B3","G3","D3","A2","E2"],"comments":["Stave 1:","Stave 2:","Stave 3:","Stave 4:","Stave 5:"],"timing":[["W",null,"W","W","W","W","W",null,"W","W","W","W","W"],["W","W","W","W","W","W","W",null,"W","W","W","W","W"],["W","W","W","W"],["W","W","W","W","W","W","W","W","W","W","W","W","W","W","W","W","W"],["W","W","W","W","W","W","W","W","W","W","W","W","W","W","W","W"]],"timingvisible":false,"tabcounter":15,"stave":4,"totalstaves":5,"instrument":"6guitar","selectedtuning":"6_standard","version":"13"}

Member for

7 months 3 weeks
Submitted by jeddfraser on Sun, 2021-03-07 18:15