Plumtree - In the Sink

Chords

01234567891011121314151617181920212223
E
B
G
D
A
E
B
0 1 2 3 4 5 6 7 8 9 10 11 12 13 14 15 16 17 18 19 20 21 22 23
(/) Slide Up  (\) Slide Down  (h) Hammer On  (p) Pull Off  (b) Bend (r) Release (v) Vibrato

Stave 1:

E|-----------------------------------------------------------------
B|-----------------------------------------------------------------
G|-----------------------------------------------------------------
D|--7--x--x--6--x--7--7--6--6--x--x--2--2--4--4--x--7--9--9--9-----
A|--7--x--x--6--x--7--7--6--6--x--x--2--2--4--4--x--7--9--9--9-----
E|--5--x--x--4--x--5--5--4--4--x--x--0--0--2--2--x--5--7--7--7-----

Stave 2:

E|--------------------------------
B|--------------------------------
G|--------------------------------
D|--7--x--x--6--x--7--7--9--9--9--
A|--7--x--x--6--x--7--7--9--9--9--
E|--5--x--x--4--x--5--5--7--7--7--

Stave 3:

E|----------------------------------------------------------------
B|----------------------------------------------------------------
G|----------------------------------------------------------------
D|----------------------------------6--x--6--6--x--x--4--x--4--4--
A|--2--------------2h4--2--2--2--2--4--x--4--4--x--x--2--x--2--2--
E|--0--0--0--0--0-------------------------------------------------

Stave 4:

E|--------------------------------------------------------------------------
B|--------------------2--x--2--2--x--x--------------------------------------
G|--1--x--1--1--x--x--2--x--2--2--x--x--------------------------------------
D|--2--x--2--2--x--x--2--x--2--2--x--x--4--x--4--4--x--x--9--x--9--9--x-----
A|--2--x--2--2--x--x--------------------4--x--4--4--x--x--9--x--9--9--x-----
E|--------------------------------------2--x--2--2--x--x--7--x--7--7--x-----

							http://www.guitartabcreator.com
Instruments
{"strings":[[[".",".",".",".",".",".",".",".",".",".",".",".",".",".",".",".",".",".",".",".","_"],[".",".",".",".",".",".",".",".",".",".",".",".",".",".",".",".",".",".",".",".","_"],[".",".",".",".",".",".",".",".",".",".",".",".",".",".",".",".",".",".",".",".","_"],[7,"x","x",6,"x",7,7,6,6,"x","x",2,2,4,4,"x",7,9,9,9,"_"],[7,"x","x",6,"x",7,7,6,6,"x","x",2,2,4,4,"x",7,9,9,9,"_"],[5,"x","x",4,"x",5,5,4,4,"x","x",0,0,2,2,"x",5,7,7,7,"_"]],[[".",".",".",".",".",".",".",".",".","."],[".",".",".",".",".",".",".",".",".","."],[".",".",".",".",".",".",".",".",".","."],[7,"x","x",6,"x",7,7,9,9,9],[7,"x","x",6,"x",7,7,9,9,9],[5,"x","x",4,"x",5,5,7,7,7]],[[".",".",".",".",".",".",".",".",".",".",".",".",".",".",".",".",".",".",".",".",".","."],[".",".",".",".",".",".",".",".",".",".",".",".",".",".",".",".",".",".",".",".",".","."],[".",".",".",".",".",".",".",".",".",".",".",".",".",".",".",".",".",".",".",".",".","."],[".",".",".",".",".",".",".",".",".",".",".",".",6,"x",6,6,"x","x",4,"x",4,4],[2,".",".",".",".",2,"h",4,2,2,2,2,4,"x",4,4,"x","x",2,"x",2,2],[0,0,0,0,0,".",".",".",".",".",".",".",".",".",".",".",".",".",".",".",".","."]],[[".",".",".",".",".",".",".",".",".",".",".",".",".",".",".",".",".",".",".",".",".",".",".","."],[".",".",".",".",".",".",2,"x",2,2,"x","x",".",".",".",".",".",".",".",".",".",".",".","."],[1,"x",1,1,"x","x",2,"x",2,2,"x","x",".",".",".",".",".",".",".",".",".",".",".","."],[2,"x",2,2,"x","x",2,"x",2,2,"x","x",4,"x",4,4,"x","x",9,"x",9,9,"x","."],[2,"x",2,2,"x","x",".",".",".",".",".",".",4,"x",4,4,"x","x",9,"x",9,9,"x","."],[".",".",".",".",".",".",".",".",".",".",".",".",2,"x",2,2,"x","x",7,"x",7,7,"x","."]]],"numberofstrings":6,"notes":["E","B","G","D","A","E","B"],"capo":0,"stringnotes":["E4","B3","G3","D3","A2","E2"],"comments":["Stave 1:","Stave 2:","Stave 3:","Stave 4:"],"timing":[[null,"W",null,"W","W","W",null,null,null,null,"W",null,null,"W","W","W","W","W","W","W","W"],[null,"W",null,null,"W",null,"W","W","W","W","W"],[null,"W","W","W","W","W","W",null,"W","W","W","W","W","W","W","W","W",null,null,"W",null,"W","W"],[null,"W",null,"W","W",null,null,"W",null,"W","W",null,null,"W",null,"W","W","W",null,"W",null,null,"W"]],"timingvisible":false,"tabcounter":24,"stave":3,"totalstaves":4,"instrument":"6guitar","selectedtuning":"6_standard","version":"13"}

Member for

9 months 1 week
Submitted by JebBushMogwaiFan on Fri, 2020-10-16 13:25