Sound will begin in 5 seconds

Oye Como Va

Chords
01234567891011121314151617181920212223
E
B
G
D
A
E
B
0 1 2 3 4 5 6 7 8 9 10 11 12 13 14 15 16 17 18 19 20 21 22 23
Song Science #1: How Pros Use 6 Chords to Write Hit Songs
(/) Slide Up  (\) Slide Down  (h) Hammer On  (p) Pull Off  (b) Bend (r) Release (v) Vibrato

Stave 1:

E|----------7--8--10--7-------------------8--10--7------------
B|--10--10---------------8h10-----10--10------------8---------
G|-----------------------------------------------------9b7p5--
D|------------------------------------------------------------
A|------------------------------------------------------------
E|------------------------------------------------------------

Stave 2:

E|-----------------------------------------------------
B|----------5--8--5--8--6/7----------------------------
G|-------5-------------------7-----\5-----7p5----------
D|--5h7--------------------------------7-------7p5--7--
A|-----------------------------------------------------
E|-----------------------------------------------------

Stave 3:

E|-------------------------5v--5----------------------------------
B|--------5--8--5--8--6/7---------5-----------5--8--5--8--6/7-----
G|-----5-----------------------------------5-------------------7--
D|--7-----------------------------------7-------------------------
A|----------------------------------------------------------------
E|----------------------------------------------------------------

Stave 4:

E|----------------------------------5-------------5/6/7--
B|----------------------------5--8-----5--8--6/7---------
G|-----5--7--7p5-----------5-----------------------------
D|--7-------------7-----7--------------------------------
A|-------------------------------------------------------
E|-------------------------------------------------------

Stave 5:

E|--8--8--5--5--8p5--8p5-------5----------------------
B|------------------------6/7-------------------------
G|--------------------------------------5--7--7p5-----
D|-----------------------------------7-------------7--
A|----------------------------------------------------
E|----------------------------------------------------

Stave 6:

E|--8--8--5--5--8--5-------5-----------
B|--------------------6/7-----5--------
G|-------------------------------5-----
D|-------------------------------------
A|-------------------------------------
E|-------------------------------------

Stave 7:

E|--8--8--5--5--8p5--8p5-------5----------------------
B|------------------------6/7-------------------------
G|--------------------------------------5--7--7p5-----
D|-----------------------------------7-------------7--
A|----------------------------------------------------
E|----------------------------------------------------

Stave 8:

E|--8--8--5--8p5--8--5-------5/12--
B|----------------------6/7--------
G|---------------------------------
D|---------------------------------
A|---------------------------------
E|---------------------------------

Stave 9:

E|--8p5--8p5--8p5--8p5--8p5--5h8p5--8p5--8p5--------------
B|--------------------------------------------8b7--5h7p5--
G|--------------------------------------------------------
D|--------------------------------------------------------
A|--------------------------------------------------------
E|--------------------------------------------------------

Stave 10:

E|-----------------------------------------
B|-----------------5-----5--7--------------
G|--5--5--5--5--5-----5--------------------
D|-----------------------------4--5--6--7--
A|-----------------------------------------
E|-----------------------------------------

Stave 11:

E|-----------------------------------------------
B|--------5--------5--------5--------5-----------
G|-----5--------5--------5--------5--------------
D|--7--------6--------5--------4--------5--6--7--
A|-----------------------------------------------
E|-----------------------------------------------

Stave 12:

E|--------------
B|--5--5--5--5--
G|--5--5--5--5--
D|--7--6--5--4--
A|--------------
E|--------------

Stave 13:

E|----------------------------------17---------
B|--20b22--20b22--20b22--17--18/19-------------
G|--------------------------------------17-----
D|---------------------------------------------
A|---------------------------------------------
E|---------------------------------------------

Stave 14:

E|---------5---------5---------5---------5v--
B|--8b10v-----8b10v-----8b10v-----8b10v------
G|-------------------------------------------
D|-------------------------------------------
A|-------------------------------------------
E|-------------------------------------------

Stave 15:

E|----------------------------------------------------------------
B|--7b8--5-------------5---------------------------------5--------
G|----------7p5-----5-----5--------8b7--7b8v--8b7--7b8v-----7b9v--
D|---------------7-----------7------------------------------------
A|----------------------------------------------------------------
E|----------------------------------------------------------------

Stave 16:

E|--8p5--8p5--8p5--12\8p5-----8--5--10\8p5--8--5--5h8p5--8--5--8--5--8--5--8--8--8--5--8--5--8p5--
B|------------------------------------------------------------------------------------------------
G|------------------------------------------------------------------------------------------------
D|------------------------------------------------------------------------------------------------
A|------------------------------------------------------------------------------------------------
E|------------------------------------------------------------------------------------------------

http://www.guitartabcreator.com
Guitar Tab Creator is intended to store guitar tab created through the tool. It currently does not support in-line text editing. Any text you place in here will be lost. If you need to comment on your tab, please use the "Tab Notes" section located below.