Sound will begin in 5 seconds

Sweeping Exercise 1

01234567891011121314151617181920212223
E
B
G
D
A
E
B
0 1 2 3 4 5 6 7 8 9 10 11 12 13 14 15 16 17 18 19 20 21 22 23
(/) Slide Up  (\) Slide Down  (h) Hammer On  (p) Pull Off  (b) Bend (r) Release (v) Vibrato

Stave 1:

E|--15p12--------------15\14p10--------------14\12p9--------------12\10p7-----------
B|---------14------14------------12------12-----------11------11-----------7--------
G|-------------15--------------------11-------------------12------------------7-----
D|----------------------------------------------------------------------------------
A|----------------------------------------------------------------------------------
E|----------------------------------------------------------------------------------

Stave 2:

E|-----------------------------------7--6--
B|-----------------------7--8--7--8--------
G|--6-----6--7--9--7--9--------------------
D|-----9-----------------------------------
A|-----------------------------------------
E|-----------------------------------------

http://www.guitartabcreator.com
Guitar Tab Creator is intended to store guitar tab created through the tool. It currently does not support in-line text editing. Any text you place in here will be lost. If you need to comment on your tab, please use the "Tab Notes" section located below.