Sound will begin in 5 seconds

Fear Of The Dark

01234567891011121314151617181920212223
E
B
G
D
A
E
B
0 1 2 3 4 5 6 7 8 9 10 11 12 13 14 15 16 17 18 19 20 21 22 23
(/) Slide Up  (\) Slide Down  (h) Hammer On  (p) Pull Off  (b) Bend (r) Release (v) Vibrato

Intro Part 1

E|----------------------------------------------------------------------------------------------------
B|----------------------------------------------------------------------------------------------------
G|--7--7--------7--7--9--9--10--10--9--9--7--7--9--7--5--5--------5--5--7--7--9--9--7--7--5--5--9--5--
D|--------7--7----------------------------------------------5--5--------------------------------------
A|----------------------------------------------------------------------------------------------------
E|----------------------------------------------------------------------------------------------------

play above 2x

E|--------------------------------------------------------------------------------------------------
B|--------------------------------------------------------------------------------------------------
G|--2--2--------2--2--4--4--5--5--4--4--2--2--4--2--0--0--------0--0--2--2--4--4--2--2--0--0--2--0--
D|--------2--2--------------------------------------------0--0--------------------------------------
A|--------------------------------------------------------------------------------------------------
E|--------------------------------------------------------------------------------------------------



E|--------------------------------------------------------------------------------------------------
B|--------------------------------------------------------------------------------------------------
G|--2--2--------2--2--4--4--5--5--4--4--2--2--4--2--------------------------------------------------
D|--------2--2--------------------------------------3--3--------3--3--5--5--7--7--5--5--3--3--7--3--
A|--------------------------------------------------------3--3--------------------------------------
E|--------------------------------------------------------------------------------------------------

Intro Part 2

E|--------------------------------------------------------------------------------------------------
B|--------------------------------------------------------------------------------------------------
G|--------------------------------------------------------------------------------------------------
D|-----7-----7-----7-----7-----3-----3-----3-----3-----5-----5-----5-----5-----3-----3-----5-----5--
A|--5-----5-----5-----5-----1-----1-----1-----1-----3-----3-----3-----3-----1-----1-----3-----3-----
E|--------------------------------------------------------------------------------------------------



E|--------------------------------------------------------------------------------------------------
B|--------------------------------------------------------------------------------------------------
G|--------------------------------------------------------------------------------------------------
D|-----7-----7-----7-----7-----3-----3-----3-----3-----5-----5-----5-----5-----5-----5-----5-----5--
A|--5-----5-----5-----5-----1-----1-----1-----1-----3-----3-----3-----3-----3-----3-----3-----3-----
E|--------------------------------------------------------------------------------------------------

Play above 2x

E|--------------------------------------------------------------------------------------------------
B|--------------------------------------------------------------------------------------------------
G|--------------------------------------------------------------------------------------------------
D|-----3-----3-----3-----3-----5-----5-----5-----5-----7-----7-----7-----7-----5-----5-----5-----5--
A|--1-----1-----1-----1-----3-----3-----3-----3-----5-----5-----5-----5-----3-----3-----3-----3-----
E|--------------------------------------------------------------------------------------------------



E|--------------------------------------------------------------------------------------------------
B|--------------------------------------------------------------------------------------------------
G|-----------------------------5-----5-----7-----7--------------------------------------------------
D|-----3-----3-----3-----3--3-----3-----5-----5--------7-----7-----7-----7-----7-----7-----7-----7--
A|--1-----1-----1-----1-----------------------------5-----5-----5-----5-----5-----5-----5-----5-----
E|--------------------------------------------------------------------------------------------------

Intro Part 2 Solo

E|--------------------------------------------------------------------------------------
B|---------------8--------------------------------------------------8-------------------
G|-----7--9--10-----10--9-----------------------10--7-----7--9--10-----10--9------------
D|--7----------------------10-----10--8-----10---------7----------------------10--------
A|--------------------------------------------------------------------------------------
E|--------------------------------------------------------------------------------------

Main Riff

E|--------------------------------------------------------------------------------------
B|--------------------------------------------------------------------------------------
G|--------------------------------------------------------------------------------------
D|--------7--7--5--5--7--------7--7--5--5--7--------7--7--5--5--7--------7--7--5--5--7--
A|--5--5-----------------5--5-----------------5--5-----------------5--5-----------------
E|--------------------------------------------------------------------------------------



E|-----------------------------------------------------------------------------------------
B|-----------------------------------------------------------------------------------------
G|-----------------------------------------------------------------------------------------
D|--------7--7--5--5--7--------7--7--5--5--7--------------------------------5--5-----------
A|--5--5-----------------5--5-----------------5--5--0--0--5--5--7--7--8--8--------8--8--7--
E|-----------------------------------------------------------------------------------------

http://www.guitartabcreator.com
Guitar Tab Creator is intended to store guitar tab created through the tool. It currently does not support in-line text editing. Any text you place in here will be lost. If you need to comment on your tab, please use the "Tab Notes" section located below.