Economy Picking

Chords

01234567891011121314151617181920212223
E
B
G
D
A
E
B
0 1 2 3 4 5 6 7 8 9 10 11 12 13 14 15 16 17 18 19 20 21 22 23
(/) Slide Up  (\) Slide Down  (h) Hammer On  (p) Pull Off  (b) Bend (r) Release (v) Vibrato

Stave 1:

E|--------------------------------------------------
B|--------------------------------------------------
G|--------------------------------------------------
D|---------------------------7----------------------
A|--------7-----9-----10-----------10-----9-----7v--
E|--0--0-----0-----0------0-----0------0-----0------

Stave 2:

E|-----------------------------------------------
B|-----------------------------------------------
G|-----------------------------------------------
D|---------------------7-----9-----7-------------
A|--------9-----10--------------------10-----9v--
E|--8--8-----8------8-----8-----8---------8------

Stave 3:

E|---------------------------------------------------
B|---------------------------------------------------
G|---------------------------------------------------
D|---------------7-----9-----10-----9-----7----------
A|--------10------------------------------------10v--
E|--7--7------7-----7-----7------7-----7-----7-------

Stave 4:

E|--------------------------------------------------
B|--------------------------------------------------
G|--------------------------------------------------
D|---------------------7-----9-----7----------------
A|--------8-----10-----------------------10-----8v--
E|--6--6-----6------6-----6-----6-----6------6------

Stave 5:

E|-----------------------------------------------
B|-----------------------------------------------
G|-----------------------------------------------
D|--------7-----6--------------4--------6p4------
A|--4--4-----4-----4--4--7--4-----4--4-----------
E|-------------------------------------------7v--

Stave 6:

E|------------------------------------------------
B|------------------------------------------------
G|------------------------------------------------
D|--------7-----6-----------------------5---------
A|-----------------------6-----7--------------7v--
E|--5--5-----5-----5--5-----5-----5--5-----5------

Stave 7:

E|----------------------------------------
B|----------------------------------------
G|----------------------------------------
D|----------------------------------------
A|--------6-----6h7p0--------5-----5h7p0--
E|--4--4-----4---------3--3-----3---------

							http://www.guitartabcreator.com
Instruments
{"title":"","strings":[[[".",".",".",".",".",".",".",".",".",".",".",".",".",".",".","."],[".",".",".",".",".",".",".",".",".",".",".",".",".",".",".","."],[".",".",".",".",".",".",".",".",".",".",".",".",".",".",".","."],[".",".",".",".",".",".",".",".",7,".",".",".",".",".",".","."],[".",".",7,".",9,".",10,".",".",".",10,".",9,".",7,"v"],[0,0,".",0,".",0,".",0,".",0,".",0,".",0,".","."]],[[".",".",".",".",".",".",".",".",".",".",".",".",".",".","."],[".",".",".",".",".",".",".",".",".",".",".",".",".",".","."],[".",".",".",".",".",".",".",".",".",".",".",".",".",".","."],[".",".",".",".",".",".",7,".",9,".",7,".",".",".","."],[".",".",9,".",10,".",".",".",".",".",".",10,".",9,"v"],[8,8,".",8,".",8,".",8,".",8,".",".",8,".","."]],[[".",".",".",".",".",".",".",".",".",".",".",".",".",".",".","."],[".",".",".",".",".",".",".",".",".",".",".",".",".",".",".","."],[".",".",".",".",".",".",".",".",".",".",".",".",".",".",".","."],[".",".",".",".",7,".",9,".",10,".",9,".",7,".",".","."],[".",".",10,".",".",".",".",".",".",".",".",".",".",".",10,"v"],[7,7,".",7,".",7,".",7,".",7,".",7,".",7,".","."]],[[".",".",".",".",".",".",".",".",".",".",".",".",".",".",".","."],[".",".",".",".",".",".",".",".",".",".",".",".",".",".",".","."],[".",".",".",".",".",".",".",".",".",".",".",".",".",".",".","."],[".",".",".",".",".",".",7,".",9,".",7,".",".",".",".","."],[".",".",8,".",10,".",".",".",".",".",".",".",10,".",8,"v"],[6,6,".",6,".",6,".",6,".",6,".",6,".",6,".","."]],[[".",".",".",".",".",".",".",".",".",".",".",".",".",".",".",".","."],[".",".",".",".",".",".",".",".",".",".",".",".",".",".",".",".","."],[".",".",".",".",".",".",".",".",".",".",".",".",".",".",".",".","."],[".",".",7,".",6,".",".",".",".",4,".",".",6,"p",4,".","."],[4,4,".",4,".",4,4,7,4,".",4,4,".",".",".",".","."],[".",".",".",".",".",".",".",".",".",".",".",".",".",".",".",7,"v"]],[[".",".",".",".",".",".",".",".",".",".",".",".",".",".",".","."],[".",".",".",".",".",".",".",".",".",".",".",".",".",".",".","."],[".",".",".",".",".",".",".",".",".",".",".",".",".",".",".","."],[".",".",7,".",6,".",".",".",".",".",".",".",5,".",".","."],[".",".",".",".",".",".",".",6,".",7,".",".",".",".",7,"v"],[5,5,".",5,".",5,5,".",5,".",5,5,".",5,".","."]],[[".",".",".",".",".",".",".",".",".",".",".",".",".",".",".",".",".","."],[".",".",".",".",".",".",".",".",".",".",".",".",".",".",".",".",".","."],[".",".",".",".",".",".",".",".",".",".",".",".",".",".",".",".",".","."],[".",".",".",".",".",".",".",".",".",".",".",".",".",".",".",".",".","."],[".",".",6,".",6,"h",7,"p",0,".",".",5,".",5,"h",7,"p",0],[4,4,".",4,".",".",".",".",".",3,3,".",3,".",".",".",".","."]]],"numberofstrings":6,"notes":["E","B","G","D","A","E","B"],"capo":0,"stringnotes":["E4","B3","G3","D3","A2","E2"],"comments":["Stave 1:","Stave 2:","Stave 3:","Stave 4:","Stave 5:","Stave 6:","Stave 7:"],"timing":[["W","W","W","W","W","W","W","W","W","W","W","W","W","W","W","W"],["W","W","W","W","W","W","W","W","W","W","W","W","W","W"],["W","W","W","W","W","W","W","W","W","W","W","W","W","W","W"],["W","W","W","W","W","W","W","W","W","W","W","W","W","W","W"],["W","W","W","W","W","W","W","W","W","W","W","W","W","W","W","W"],["W","W","W","W","W","W","W","W","W","W","W","W","W","W","W"],["W","W","W","W","W",null,"W",null,"W","W","W","W","W","W",null,"W",null,"W"]],"timingvisible":false,"tabcounter":18,"stave":6,"totalstaves":7,"instrument":"6guitar","selectedtuning":"6_standard","version":"13"}

Member for

1 year 2 months
Submitted by jdurrantmusic on Wed, 2019-12-04 10:43