E minor (Phrygian)

Chords

01234567891011121314151617181920212223
E
B
G
D
A
E
B
0 1 2 3 4 5 6 7 8 9 10 11 12 13 14 15 16 17 18 19 20 21 22 23
(/) Slide Up  (\) Slide Down  (h) Hammer On  (p) Pull Off  (b) Bend (r) Release (v) Vibrato

Stave 1:

E|--0--------------------------------------------------0--1--3--1--0--------------------------------------------
B|--0-----------------------------------------0--1--3-----------------3--1--0-----------------------------------
G|--0-----------------------------------0--2-----------------------------------2--0-----------------------------
D|--2--------------------------0--2--3-----------------------------------------------3--2--0--------------------
A|--2-----------------0--2--3-----------------------------------------------------------------3--2--0-----------
E|--0--------0--1--3-----------------------------------------------------------------------------------3--1--0--

Stave 2:

E|--3-----------------------------------3--5--3-----------------------------------------------------------
B|--5--------------------------3--5--6-----------6--5--3--------------------------------------------------
G|--4-----------------2--4--5-----------------------------5--4--2-----------------------------------------
D|--2--------2--3--5-----------------------------------------------5--3--2-----------------------------2--
A|--------------------------------------------------------------------------5--3--2-----------2--3--5-----
E|-----------------------------------------------------------------------------------5--3--5--------------

Stave 3:

E|-----------------------------------------5--7--8--7--5--------------------------------------------------------
B|--5-----------------------------5--6--8-----------------8--6--5-----------------------------------------------
G|--4--------------------4--5--7-----------------------------------7--5--4--------------------------------------
D|--5--------------5--7-----------------------------------------------------7--5--------------------------------
A|--7--------7--8-----------------------------------------------------------------8--7--5-----------------5--7--
E|-----------------------------------------------------------------------------------------8--7--5--7--8--------

Stave 4:

E|--7---------------------------------------------7--8--10--8--7-----------------------------------------------------------
B|--8--------------------------------------8--10------------------10--8----------------------------------------------------
G|--9----------------------------7--9--10--------------------------------10--9--7------------------------------------------
D|--9------------------7--9--10----------------------------------------------------10--9--7--------------------------------
A|--7--------7--8--10------------------------------------------------------------------------10--8--7-------------------7--
E|-----------------------------------------------------------------------------------------------------10--8--7--8--10-----

Stave 5:

E|--------------------------------------------------------------10--12--10------------------------------------------------------------
B|--------------------------------------------------10--12--13--------------13--12--10------------------------------------------------
G|--9------------------------------------9--10--12--------------------------------------12--10--9-------------------------------------
D|--9-------------------------9--10--12------------------------------------------------------------12--10--9--------------------------
A|--10----------------10--12----------------------------------------------------------------------------------12--10------------------
E|--12--------12--13--------------------------------------------------------------------------------------------------13--12--10--12--

							http://www.guitartabcreator.com
Instruments
{"strings":[[[0,"_","_",".",".",".",".",".",".",".",".",".",".",".",".",".",".",0,1,3,1,0,".",".",".",".",".",".",".",".",".",".",".",".",".","."],[0,"_","_",".",".",".",".",".",".",".",".",".",".",".",0,1,3,".",".",".",".",".",3,1,0,".",".",".",".",".",".",".",".",".",".","."],[0,"_","_",".",".",".",".",".",".",".",".",".",0,2,".",".",".",".",".",".",".",".",".",".",".",2,0,".",".",".",".",".",".",".",".","."],[2,"_","_",".",".",".",".",".",".",0,2,3,".",".",".",".",".",".",".",".",".",".",".",".",".",".",".",3,2,0,".",".",".",".",".","."],[2,"_","_",".",".",".",0,2,3,".",".",".",".",".",".",".",".",".",".",".",".",".",".",".",".",".",".",".",".",".",3,2,0,".",".","."],[0,"_","_",0,1,3,".",".",".",".",".",".",".",".",".",".",".",".",".",".",".",".",".",".",".",".",".",".",".",".",".",".",".",3,1,0]],[[3,"_","_",".",".",".",".",".",".",".",".",".",3,5,3,".",".",".",".",".",".",".",".",".",".",".",".",".",".",".",".",".",".","."],[5,"_","_",".",".",".",".",".",".",3,5,6,".",".",".",6,5,3,".",".",".",".",".",".",".",".",".",".",".",".",".",".",".","."],[4,"_","_",".",".",".",2,4,5,".",".",".",".",".",".",".",".",".",5,4,2,".",".",".",".",".",".",".",".",".",".",".",".","."],[2,"_","_",2,3,5,".",".",".",".",".",".",".",".",".",".",".",".",".",".",".",5,3,2,".",".",".",".",".",".",".",".",".",2],[".","_","_",".",".",".",".",".",".",".",".",".",".",".",".",".",".",".",".",".",".",".",".",".",5,3,2,".",".",".",2,3,5,"."],[".","_","_",".",".",".",".",".",".",".",".",".",".",".",".",".",".",".",".",".",".",".",".",".",".",".",".",5,3,5,".",".",".","."]],[[".","_","_",".",".",".",".",".",".",".",".",".",".",5,7,8,7,5,".",".",".",".",".",".",".",".",".",".",".",".",".",".",".",".",".","."],[5,"_","_",".",".",".",".",".",".",".",5,6,8,".",".",".",".",".",8,6,5,".",".",".",".",".",".",".",".",".",".",".",".",".",".","."],[4,"_","_",".",".",".",".",4,5,7,".",".",".",".",".",".",".",".",".",".",".",7,5,4,".",".",".",".",".",".",".",".",".",".",".","."],[5,"_","_",".",".",5,7,".",".",".",".",".",".",".",".",".",".",".",".",".",".",".",".",".",7,5,".",".",".",".",".",".",".",".",".","."],[7,"_","_",7,8,".",".",".",".",".",".",".",".",".",".",".",".",".",".",".",".",".",".",".",".",".",8,7,5,".",".",".",".",".",5,7],[".","_","_",".",".",".",".",".",".",".",".",".",".",".",".",".",".",".",".",".",".",".",".",".",".",".",".",".",".",8,7,5,7,8,".","."]],[[7,"_","_",".",".",".",".",".",".",".",".",".",".",".",7,8,10,8,7,".",".",".",".",".",".",".",".",".",".",".",".",".",".",".",".","."],[8,"_","_",".",".",".",".",".",".",".",".",".",8,10,".",".",".",".",".",10,8,".",".",".",".",".",".",".",".",".",".",".",".",".",".","."],[9,"_","_",".",".",".",".",".",".",7,9,10,".",".",".",".",".",".",".",".",".",10,9,7,".",".",".",".",".",".",".",".",".",".",".","."],[9,"_","_",".",".",".",7,9,10,".",".",".",".",".",".",".",".",".",".",".",".",".",".",".",10,9,7,".",".",".",".",".",".",".",".","."],[7,"_","_",7,8,10,".",".",".",".",".",".",".",".",".",".",".",".",".",".",".",".",".",".",".",".",".",10,8,7,".",".",".",".",".",7],[".","_","_",".",".",".",".",".",".",".",".",".",".",".",".",".",".",".",".",".",".",".",".",".",".",".",".",".",".",".",10,8,7,8,10,"."]],[[".","_","_",".",".",".",".",".",".",".",".",".",".",".",".",".",10,12,10,".",".",".",".",".",".",".",".",".",".",".",".",".",".","."],[".","_","_",".",".",".",".",".",".",".",".",".",".",10,12,13,".",".",".",13,12,10,".",".",".",".",".",".",".",".",".",".",".","."],[9,"_","_",".",".",".",".",".",".",".",9,10,12,".",".",".",".",".",".",".",".",".",12,10,9,".",".",".",".",".",".",".",".","."],[9,"_","_",".",".",".",".",9,10,12,".",".",".",".",".",".",".",".",".",".",".",".",".",".",".",12,10,9,".",".",".",".",".","."],[10,"_","_",".",".",10,12,".",".",".",".",".",".",".",".",".",".",".",".",".",".",".",".",".",".",".",".",".",12,10,".",".",".","."],[12,"_","_",12,13,".",".",".",".",".",".",".",".",".",".",".",".",".",".",".",".",".",".",".",".",".",".",".",".",".",13,12,10,12]]],"numberofstrings":6,"notes":["E","B","G","D","A","E","B"],"capo":0,"stringnotes":["E4","B3","G3","D3","A2","E2"],"comments":["Stave 1:","Stave 2:","Stave 3:","Stave 4:","Stave 5:"],"timing":[["W","W","W","W","W","W","W","W","W","W","W","W","W","W","W","W","W","W","W","W","W","W","W","W","W","W","W","W","W","W","W","W","W","W","W","W"],["W",null,null,"W","W","W","W","W","W","W","W","W","W","W","W","W","W","W","W","W","W","W","W","W","W","W","W","W","W","W","W","W","W","W"],["W",null,null,"W","W","W","W","W","W","W","W","W","W","W","W","W","W","W","W","W","W","W","W","W","W","W","W","W","W","W","W","W","W","W","W","W"],["W",null,null,"W","W","W","W","W","W","W","W","W","W","W","W","W","W","W","W","W","W","W","W","W","W","W","W","W","W","W","W","W","W","W","W","W"],["W",null,null,"W","W","W","W","W","W","W","W","W","W","W","W","W","W","W","W","W","W","W","W","W","W","W","W","W","W","W","W","W","W","W"]],"timingvisible":false,"tabcounter":34,"stave":4,"totalstaves":5,"instrument":"6guitar","selectedtuning":"6_standard","version":"13"}

Member for

1 year
Submitted by jdurrantmusic on Fri, 2020-05-22 05:29