Sound will begin in 5 seconds

C Major 7 Chords and Arpeggios

Chords
01234567891011121314151617181920212223
E
B
G
D
A
E
B
0 1 2 3 4 5 6 7 8 9 10 11 12 13 14 15 16 17 18 19 20 21 22 23
(/) Slide Up  (\) Slide Down  (h) Hammer On  (p) Pull Off  (b) Bend (r) Release (v) Vibrato

C Shape

E|--0-----------------------0--3--0--------------------
B|--0-----------------0--1-----------1--0--------------
G|--0--------------0-----------------------0-----------
D|--2-----------2-----------------------------2--------
A|--3--------3-----------------------------------3-----
E|-----------------------------------------------------

A Shape

E|--3--------------------------3-----------------------
B|--5-----------------------5-----5--------------------
G|--4-----------------4--5-----------5--4--------------
D|--5-----------2--5-----------------------5--2--------
A|--3--------3-----------------------------------3-----
E|-----------------------------------------------------

G Shape

E|--7--------------------------7--8--7--------------------
B|--5-----------------------5-----------5-----------------
G|--5-----------------4--5-----------------5--4-----------
D|--5--------------5-----------------------------5--------
A|--7-----------7-----------------------------------7-----
E|--8--------8-----------------------------------------8--

E Shape

E|--8--------------------------------7--8--7-------------------------
B|--8-----------------------------8-----------8----------------------
G|--9--------------------------9-----------------9-------------------
D|--9-------------------9--10-----------------------10--9------------
A|--10-----------7--10-------------------------------------10--7-----
E|--8---------8---------------------------------------------------8--

D Shape

E|--12---------------------------12---------------------
B|--12-------------------12--13------13--12-------------
G|--12------------9--12----------------------12--9------
D|--10--------10------------------------------------10--
A|------------------------------------------------------
E|------------------------------------------------------

http://www.guitartabcreator.com
Guitar Tab Creator is intended to store guitar tab created through the tool. It currently does not support in-line text editing. Any text you place in here will be lost. If you need to comment on your tab, please use the "Tab Notes" section located below.