Skip to main content

Spyder Scale

0 1 2 3 4 5 6 7 8 9 10 11 12 13 14 15 16 17 18 19 20 21 22 23
E
B
G
D
A
E
0 1 2 3 4 5 6 7 8 9 10 11 12 13 14 15 16 17 18 19 20 21 22 23
(/) Slide Up  (\) Slide Down  (h) Hammer On  (p) Pull Off  (b) Bend (r) Release (v) Vibrato

Stave 1:

E|-0-1-2-3-------------------------------------------------------------------------5-6-7-8-
B|---------1-2-3-4---------------------------------------------------------5-6-7-8---------
G|-----------------2-3-4-5-----------------------------------------5-6-7-8-----------------
D|-------------------------3-4-5-6-------------------------5-6-7-8-------------------------
A|---------------------------------4-5-6-7---------5-6-7-8---------------------------------
E|-----------------------------------------5-6-7-8-----------------------------------------

Stave 2:

E|---------------------------------------------------------------------------------------------------10-11-12-13-
B|-6-7-8-9-------------------------------------------------------------------------------10-11-12-13-------------
G|---------7-8-9-10----------------------------------------------------------10-11-12-13-------------------------
D|------------------8-9-10-11------------------------------------10-11-12-13-------------------------------------
A|----------------------------9-10-11-12-------------10-11-12-13-------------------------------------------------
E|---------------------------------------10-11-12-13-------------------------------------------------------------

Stave 3:

E|-13-12-11-10-------------------------------------------------------------------------------8-7-6-5-
B|-------------12-11-10-9------------------------------------------------------------8-7-6-5---------
G|------------------------11-10-9-8------------------------------------------8-7-6-5-----------------
D|----------------------------------10-9-8-7-------------------------8-7-6-5-------------------------
A|-------------------------------------------9-8-7-6---------8-7-6-5---------------------------------
E|---------------------------------------------------8-7-6-5-----------------------------------------

Stave 4:

E|-----------------------------------------
B|-7-6-5-4---------------------------------
G|---------6-5-4-3-------------------------
D|-----------------5-4-3-2-----------------
A|-------------------------4-3-2-1---------
E|---------------------------------3-2-1-0-

							https://www.guitartabcreator.com
Chords

Instruments
{"strings":[[[0,1,2,3,".",".",".",".",".",".",".",".",".",".",".",".",".",".",".",".",".",".",".",".",".",".",".",".",".",".",".",".",".",".",".",".",".",".",".",".",5,6,7,8],[".",".",".",".",1,2,3,4,".",".",".",".",".",".",".",".",".",".",".",".",".",".",".",".",".",".",".",".",".",".",".",".",".",".",".",".",5,6,7,8,".",".",".","."],[".",".",".",".",".",".",".",".",2,3,4,5,".",".",".",".",".",".",".",".",".",".",".",".",".",".",".",".",".",".",".",".",5,6,7,8,".",".",".",".",".",".",".","."],[".",".",".",".",".",".",".",".",".",".",".",".",3,4,5,6,".",".",".",".",".",".",".",".",".",".",".",".",5,6,7,8,".",".",".",".",".",".",".",".",".",".",".","."],[".",".",".",".",".",".",".",".",".",".",".",".",".",".",".",".",4,5,6,7,".",".",".",".",5,6,7,8,".",".",".",".",".",".",".",".",".",".",".",".",".",".",".","."],[".",".",".",".",".",".",".",".",".",".",".",".",".",".",".",".",".",".",".",".",5,6,7,8,".",".",".",".",".",".",".",".",".",".",".",".",".",".",".",".",".",".",".","."]],[[".",".",".",".",".",".",".",".",".",".",".",".",".",".",".",".",".",".",".",".",".",".",".",".",".",".",".",".",".",".",".",".",".",".",".",".",10,11,12,13],[6,7,8,9,".",".",".",".",".",".",".",".",".",".",".",".",".",".",".",".",".",".",".",".",".",".",".",".",".",".",".",".",10,11,12,13,".",".",".","."],[".",".",".",".",7,8,9,10,".",".",".",".",".",".",".",".",".",".",".",".",".",".",".",".",".",".",".",".",10,11,12,13,".",".",".",".",".",".",".","."],[".",".",".",".",".",".",".",".",8,9,10,11,".",".",".",".",".",".",".",".",".",".",".",".",10,11,12,13,".",".",".",".",".",".",".",".",".",".",".","."],[".",".",".",".",".",".",".",".",".",".",".",".",9,10,11,12,".",".",".",".",10,11,12,13,".",".",".",".",".",".",".",".",".",".",".",".",".",".",".","."],[".",".",".",".",".",".",".",".",".",".",".",".",".",".",".",".",10,11,12,13,".",".",".",".",".",".",".",".",".",".",".",".",".",".",".",".",".",".",".","."]],[[13,12,11,10,".",".",".",".",".",".",".",".",".",".",".",".",".",".",".",".",".",".",".",".",".",".",".",".",".",".",".",".",".",".",".",".",".",".",".",".",8,7,6,5],[".",".",".",".",12,11,10,9,".",".",".",".",".",".",".",".",".",".",".",".",".",".",".",".",".",".",".",".",".",".",".",".",".",".",".",".",8,7,6,5,".",".",".","."],[".",".",".",".",".",".",".",".",11,10,9,8,".",".",".",".",".",".",".",".",".",".",".",".",".",".",".",".",".",".",".",".",8,7,6,5,".",".",".",".",".",".",".","."],[".",".",".",".",".",".",".",".",".",".",".",".",10,9,8,7,".",".",".",".",".",".",".",".",".",".",".",".",8,7,6,5,".",".",".",".",".",".",".",".",".",".",".","."],[".",".",".",".",".",".",".",".",".",".",".",".",".",".",".",".",9,8,7,6,".",".",".",".",8,7,6,5,".",".",".",".",".",".",".",".",".",".",".",".",".",".",".","."],[".",".",".",".",".",".",".",".",".",".",".",".",".",".",".",".",".",".",".",".",8,7,6,5,".",".",".",".",".",".",".",".",".",".",".",".",".",".",".",".",".",".",".","."]],[[".",".",".",".",".",".",".",".",".",".",".",".",".",".",".",".",".",".",".","."],[7,6,5,4,".",".",".",".",".",".",".",".",".",".",".",".",".",".",".","."],[".",".",".",".",6,5,4,3,".",".",".",".",".",".",".",".",".",".",".","."],[".",".",".",".",".",".",".",".",5,4,3,2,".",".",".",".",".",".",".","."],[".",".",".",".",".",".",".",".",".",".",".",".",4,3,2,1,".",".",".","."],["_",".",".",".",".",".",".",".",".",".",".",".",".",".",".",".",3,2,1,0]]],"numberofstrings":6,"notes":["E","B","G","D","A","E","B"],"capo":0,"stringnotes":["E4","B3","G3","D3","A2","E2"],"comments":["Stave 1:","Stave 2:","Stave 3:","Stave 4:"],"timing":[["Q","Q","Q","Q","Q","Q","Q","Q","Q","Q","Q","Q","Q","Q","Q","Q","Q","Q","Q","Q","Q","Q","Q","Q","Q","Q","Q","Q","Q","Q","Q","Q","Q","Q","Q","Q","Q","Q","Q","Q","Q","Q","Q","Q"],["Q","Q","Q","Q","Q","Q","Q","Q","Q","Q","Q","Q","Q","Q","Q","Q","Q","Q","Q","Q","Q","Q","Q","Q","Q","Q","Q","Q","Q","Q","Q","Q","Q","Q","Q","Q","Q","Q","Q","Q"],["Q","Q","Q","Q","Q","Q","Q","Q","Q","Q","Q","Q","Q","Q","Q","Q","Q","Q","Q","Q","Q","Q","Q","Q","Q","Q","Q","Q","Q","Q","Q","Q","Q","Q","Q","Q","Q","Q","Q","Q","Q","Q","Q","Q"],["Q","Q","Q","Q","Q","Q","Q","Q","Q","Q","Q","Q","Q","Q","Q","Q","Q","Q","Q","Q"]],"timingvisible":false,"tabcounter":20,"stave":1,"totalstaves":4,"instrument":"6guitar","selectedtuning":"6_standard","version":"13"}
Submitted by jdhdtv on