A Minor Pentatonic

Chords

01234567891011121314151617181920212223
E
B
G
D
A
E
B
0 1 2 3 4 5 6 7 8 9 10 11 12 13 14 15 16 17 18 19 20 21 22 23
(/) Slide Up  (\) Slide Down  (h) Hammer On  (p) Pull Off  (b) Bend (r) Release (v) Vibrato

Stave 1:

E|--------------------------------5--8------------------------------------8--10-----------------------------------------10--12--
B|--------------------------5--8-----------------------------------8--10----------------------------------------10--13----------
G|--------------------5--7-----------------------------------7--9----------------------------------------9--12------------------
D|--------------5--7----------------------------------7--10--------------------------------------10--12-------------------------
A|--------5--7---------------------------------7--10-------------------------------------10--12---------------------------------
E|--5--8--------------------------------8--10------------------------------------10--12-----------------------------------------

Stave 2:

E|------------------------------------------12--15------------------------------------------15--17--
B|----------------------------------13--15------------------------------------------15--17----------
G|--------------------------12--14------------------------------------------14--17------------------
D|------------------12--14------------------------------------------14--17--------------------------
A|----------12--15------------------------------------------15--17----------------------------------
E|--12--15------------------------------------------15--17------------------------------------------

							http://www.guitartabcreator.com
Instruments
{"strings":[[[".",".",".",".",".",".",".",".",".",".",5,8,".",".",".",".",".",".",".",".",".",".",8,10,".",".",".",".",".",".",".",".",".",".",10,12],[".",".",".",".",".",".",".",".",5,8,".",".",".",".",".",".",".",".",".",".",8,10,".",".",".",".",".",".",".",".",".",".",10,13,".","."],[".",".",".",".",".",".",5,7,".",".",".",".",".",".",".",".",".",".",7,9,".",".",".",".",".",".",".",".",".",".",9,12,".",".",".","."],[".",".",".",".",5,7,".",".",".",".",".",".",".",".",".",".",7,10,".",".",".",".",".",".",".",".",".",".",10,12,".",".",".",".",".","."],[".",".",5,7,".",".",".",".",".",".",".",".",".",".",7,10,".",".",".",".",".",".",".",".",".",".",10,12,".",".",".",".",".",".",".","."],[5,8,".",".",".",".",".",".",".",".",".",".",8,10,".",".",".",".",".",".",".",".",".",".",10,12,".",".",".",".",".",".",".",".",".","."]],[[".",".",".",".",".",".",".",".",".",".",12,15,".",".",".",".",".",".",".",".",".",".",15,17],[".",".",".",".",".",".",".",".",13,15,".",".",".",".",".",".",".",".",".",".",15,17,".","."],[".",".",".",".",".",".",12,14,".",".",".",".",".",".",".",".",".",".",14,17,".",".",".","."],[".",".",".",".",12,14,".",".",".",".",".",".",".",".",".",".",14,17,".",".",".",".",".","."],[".",".",12,15,".",".",".",".",".",".",".",".",".",".",15,17,".",".",".",".",".",".",".","."],[12,15,".",".",".",".",".",".",".",".",".",".",15,17,".",".",".",".",".",".",".",".",".","."]]],"numberofstrings":6,"notes":["E","B","G","D","A","E","B"],"capo":0,"stringnotes":["E4","B3","G3","D3","A2","E2"],"comments":["Stave 1:","Stave 2:"],"timing":[["W","W","W","W","W","W","W","W","W","W","W","W","W","W","W","W","W","W","W","W","W","W","W","W","W","W","W","W","W","W","W","W","W","W","W","W"],["W","W","W","W","W","W","W","W","W","W","W","W","W","W","W","W","W","W","W","W","W","W","W","W"]],"timingvisible":false,"tabcounter":24,"stave":1,"totalstaves":2,"instrument":"6guitar","selectedtuning":"6_standard","version":"13"}

Member for

1 month 1 week
Submitted by jddupr1 on Wed, 2020-10-07 11:24